To celebrate the anniversary, I am giving you (finally...) : iPhone LickByNeck !!!!!!

The shadow of your smile

Bossa Nova classic fingerstyle solo guitar arrangement played in the key of Em

You need to install the Flash plugin - http://www.webestools.com/

http://classicalguitartablature.blogspot.com/
The Shadow Of Your Smile played in the key of Em.
http://classicalguitartablature.blogspot.com/
E|-------------------------- 7----|--------------------------------|
B|------------------ 7-- 8------ 2|-------- 2---------- 2---- 5----|
G|-------------- 9-------------- 2|------ 2------------ 2---- 2----|
D|------------ 9---------------- 2|-------- 2---------- 2---- 2----|
A|--------------------------------|---------------- 4--------------|
E|--------------------------------| 2------------------------------|
http://classicalguitartablature.blogspot.com/
E|--------------------------------|--------------------------------|
B| 4---- 4---------- 4---- 1------| 0------ 0-------- 0------------|
G| 2---- 2---------- 2---- 2------| 0------ 0-------- 0------------|
D| 4---- 4---------- 4---- 1------| 2------ 2-------- 2------------|
A| 2------------------------------|---------------- 2--------------|
E|-------------- 2-------- 1------| 0------------------------------|
http://classicalguitartablature.blogspot.com/
E|-------------------------- 7----|------------------ 5------------|
B|---- 5-------- 5-- 7-- 8------ 5|------ 5---------- 5------ 5-- 7|
G|---- 4---- 4------ 6-- 6------ 5|-------- 5-------- 5------ 5-- 5|
D|---- 5------------ 5-- 5------ 5|------ 5------------------ 5-- 7|
A|--------------------------------|-------------- 7-------------- 5|
E| 5---------------------------- 5|--------------------------------|
http://classicalguitartablature.blogspot.com/
E|------------------------------ 7|------ 7------------------------|
B|------ 7---------- 3---------- 7|------ 7---------- 7------ 7----|
G|------ 5---------- 5---------- 7|------ 7---------- 7------ 7----|
D|------ 7---------- 4------------|------------------ 9------ 9----|
A|------------------------------10|--------------------------------|
E|-------------- 4----------------|--------------10-------------- 8|
http://classicalguitartablature.blogspot.com/
E|---------------- 8-- 7----------| 5------ 5----------------------|
B|-- 8------ 8---- 8------10-- 8--| 5------ 5----------------------|
G|-- 9-------- 9 9----------------| 5------ 5---------- 5-------- 2|
D|-- 9-------- 9------------------| 4------------------------------|
A|--------------------------------|-------------- 3----------------|
E|--------------------------------|--------------------------------|
http://classicalguitartablature.blogspot.com/
E|------------------ 5------------|--------------------------------|
B| 0---- 0---------- 4------------| 8---- 8---------- 8------ 8----|
G|------ 2---------- 5------------| 7---- 7---------- 5------ 5----|
D| 1---- 1------ 4----------------| 5---- 5---------- 7------ 7----|
A| 2------------------------------| 7------------ 6----------------|
E|--------------------------------|--------------------------------|
http://classicalguitartablature.blogspot.com/
E|-------------- 7-------------- 3|------------ 3------------------|
B|-- 5---------- 8--10-- 8-- 7-- 5|-------- 5----------------------|
G|-- 4---------- 7-------------- 4|-------- 4---------- 4-------- 3|
D|-- 5---------- 9----------------|--------------------------------|
A| 5------------------------------| 4-------------- 4------------ 3|
E|--------------------------------|--------------------------------|
http://classicalguitartablature.blogspot.com/
E|---------------------- 3------ 2|------ 2------------------------|
B|------------------------------ 1|------ 1------------ 5---- 5----|
G|-- 3------ 3------------------ 2|------ 2------------ 2------ 2--|
D|-- 2------ 2--------------------|-------------------- 4------ 4--|
A|-------------- 3----------------|---------------- 3--------------|
E|------------------------------ 2|--------------------------------|
http://classicalguitartablature.blogspot.com/
E|------------------ 2---- 3-- 7--|--------------------------------|
B|---- 4---------- 5--------------| 2---- 2---------- 5------ 5----|
G|---- 2------ 4------------------| 2---- 2---------- 2------ 2----|
D|---- 4--------------------------| 2---- 2---------- 2------ 2----|
A| 2------------------------------|-------------- 4----------------|
E|--------------------------------| 2------------------------------|
http://classicalguitartablature.blogspot.com/
E|--------------------------------|--------------------------------|
B|---- 4------------ 1------ 0----|------ 0---------- 0------ 0----|
G|---- 2---- 2------ 2------ 0----|------ 0---------- 0------ 0----|
D|---- 4---- 4------ 1------ 2----|------ 2---------- 2------ 2----|
A| 2------------------------------|-------------- 2----------------|
E|---------------- 1------------ 0|--------------------------------|
http://classicalguitartablature.blogspot.com/
E|-------------------------- 7----|------------------ 5------------|
B|-- 5---------- 5-- 7-- 8------ 5|-------- 5-------- 5------ 5----|
G|-- 4------ 4------ 6-- 6------ 5|------ 5---------- 5------------|
D|-- 5-------------- 5---------- 5|------ 5------------------ 5----|
A|--------------------------------|-------------- 7----------------|
E| 5---------------------------- 5|--------------------------------|
http://classicalguitartablature.blogspot.com/
E|--------------------------10----|------10----------10------10----|
B| 7---- 7------------------10----|------10---------- 8------ 8----|
G| 5------ 5---------- 7----10----|------10---------- 8------ 8----|
D| 7---- 7------------ 7----------|--------------------------------|
A| 5------------------------------|-------------- 8-------------- 7|
E|-------------- 8----------------| 7------------------------------|
http://classicalguitartablature.blogspot.com/
E|--------------12--10-- 8-- 7-- 8|---------- 8--------------------|
B|-- 8----------12-- 9-- 6-- 6-- 5|------ 5-------------- 5--------|
G|---- 7--------13----10 7-- 7-- 5|-------- 5-------------- 5------|
D|-- 6------------12 9-- 6--------|-------- 5------------ 5--------|
A|--------------------------------|-------------- 7----------------|
E|--------------------------------| 5------------------------ 5-- 8|
http://classicalguitartablature.blogspot.com/
E|----------------10-- 8-- 7------| 7---------- 7------------------|
B|------ 8-------- 8-- 8--10--10--| 7---------- 7---------- 7------|
G|-------- 8---- 8---- 8-- 8------| 7------ 7-------------- 7------|
D|------ 8------------------------|------------------------ 7------|
A|-------------- 8------ 8--------|---------------- 9--------------|
E|--------------------------------| 7------------------------------|
http://classicalguitartablature.blogspot.com/
E|-------------- 8-- 7-- 5------ 5|---------- 5--------------------|
B|-------------- 5---------- 8-- 5|---------------------- 5--------|
G|------ 7------ 5-------------- 5|------ 5-------------- 5--------|
D|------ 6---- 5------------------|---------------------- 5--------|
A| 7------------------------------|-------------- 7-------------- 5|
E|------------------------------ 5|--------------------------------|
http://classicalguitartablature.blogspot.com/
E|-------------- 7-- 5---------- 3|-------- 3-------- 3------------|
B|------ 5------ 5-- 5-- 8-- 7-- 3|-------- 3-------- 3------------|
G|-------- 5---- 5-- 5---- 5-- 5 2|-------- 2-------- 2---------- 2|
D|------ 5-------------- 5-- 4----|------------------------------ 2|
A|---------------- 5--------------|--------------------------------|
E|-------------------------- 4----| 3------------ 3-------------- 3|
http://classicalguitartablature.blogspot.com/
E| 3------------------------------|--------------------------------|
B| 3------------------------------|--------------------------------|
G|--------------------------------|--------------------------------|
D|--------------------------------|--------------------------------|
A|--------------------------------|--------------------------------|
E|--------------------------------|--------------------------------|
http://classicalguitartablature.blogspot.com/

0 ความคิดเห็น:

แสดงความคิดเห็น