To celebrate the anniversary, I am giving you (finally...) : iPhone LickByNeck !!!!!!

The Simpsons Theme

The Simpsons theme song fingerstyle chord melody guitar arrangement played in the key of C.


The Simpsons Theme played in the key of C.
Classical Guitar Tablature http://classicalguitartablature.blogspot.com/
E|--------------------------------|--------------------------------|
B| 5------ 5------ 5------ 5------| 5------ 5-------------------- 7|
G|-- 5------ 5------ 5------ 5----|-- 5---- 5---- 5-------------- 5|
D|---- 5------ 5------ 5------ 5--|---- 5---- 5-- 5-------------- 5|
A|--------------------------------|--------------------------------|
E|--------------------------------|-------------- 8----------------|
Classical Guitar Tablature http://classicalguitartablature.blogspot.com/
E|--------------------------------|--------------------------------|
B|-------------- 8----------------|--------------------------------|
G|-------------- 5----------------|--------------------------------|
D|-------------- 5----------------|--------------------------------|
A|--------------------------------|--------------------------------|
E|-------------- 8----------------|--------------------------------|
Classical Guitar Tablature http://classicalguitartablature.blogspot.com/
E|--------------------------------|--------------------------------|
B|---- 7-- 7---------- 7---- 7----|---- 7-- 7---- 7----------------|
G|---- 9-- 9---------- 9-- 9 9----|---- 9-- 9---- 9-------- 9------|
D|----10--10----------10--1010----|----10--10----10------10--------|
A|------------ 9------------------|---------- 9------ 9------ 9----|
E| 8---------------------------- 8|------------------------------ 8|
Classical Guitar Tablature http://classicalguitartablature.blogspot.com/
E|--------------------------------|-------------------- 2------ 5--|
B|-- 7---- 7-------- 7-- 7-- 7----|------------ 5------ 5----------|
G|-- 9-- 9---------- 9-- 9-- 9-- 5|-------- 5-- 5------------------|
D|--10--10----------10--10--10----|---- 4---------- 4------ 4------|
A|---------- 9------------------ 3|--------------------------------|
E|--------------------------------|------------ 2------ 2------ 2--|
Classical Guitar Tablature http://classicalguitartablature.blogspot.com/
E| 3---------- 0------------------|--------------------------------|
B| 5------------------ 1----------|--------------------------------|
G|-------- 5---------- 2------ 2--|---------- 0--------------------|
D|---- 4--------------------------| 4-- 4-- 4 2--------------------|
A| 3------------------------------| 3------------------------------|
E|------------ 2------ 2------ 2--|------------ 2---- 2------ 2-- 8|
Classical Guitar Tablature http://classicalguitartablature.blogspot.com/
E|--------------------------------|--------------------------------|
B|---- 7-- 7---- 7----------------|-- 6-- 6---------- 6-- 6-- 6----|
G|---- 9-- 9---- 9-------- 9------|-- 8-- 8---------- 8-- 8-- 8----|
D|----10--10----10------10--------|-- 9-- 9---------- 9-- 9-- 9----|
A|---------- 9------ 9------ 9----|---------- 8--------------------|
E|------------------------------ 7|------------------------------ 7|
Classical Guitar Tablature http://classicalguitartablature.blogspot.com/
E|--------------------------------|--------------------------------|
B|-- 6-- 6------ 6------ 6--------|-- 6-- 6---------- 6-- 6-- 6----|
G|-- 8-- 8------ 8------ 8--------|-- 8-- 8---------- 8-- 8-- 8----|
D|-- 9-- 9------ 9------ 9--------|-- 9-- 9---------- 9-- 9-- 9----|
A|---------- 8------ 8------ 8----|---------- 8--------------------|
E|------------------------------ 7|------------------------------ 7|
Classical Guitar Tablature http://classicalguitartablature.blogspot.com/
E|--------------------------------|------------------ 1------11----|
B|-- 6-- 6------ 6------ 6--------|---------- 4------ 4------------|
G|-- 8-- 8------ 8------ 8------ 4|------ 4-- 4------ 4------------|
D|-- 9-- 9------ 9------ 9--------|-- 3------ 3--------------------|
A|---------- 8------ 8------ 8-- 2|--------------------------------|
E|--------------------------------|------------ 1------------------|
Classical Guitar Tablature http://classicalguitartablature.blogspot.com/
E| 9---------- 7------------------|--------------------------------|
B| 6------ 6----------10-------- 2|------------ 4------------------|
G|---- 8----------------------10--|------ 4---- 4---- 4-- 4-- 4----|
D|--------------------------------|---- 3------ 3---- 3-- 3-- 3----|
A|------------ 8------ 8------ 8--| 2------------------------------|
E| 7------------------------------|------------ 1---------------- 7|
Classical Guitar Tablature http://classicalguitartablature.blogspot.com/
E|--------------------------------|-------------- 4----------------|
B|-- 6-- 6------ 6------ 6------ 5|-------------- 5---------- 5----|
G|-- 8-- 8------ 8------ 8------ 4|------------ 4---- 6------ 6----|
D|-- 9-- 9------ 9------ 9--------|---- 6------ 6------------------|
A|---------- 8------ 8------ 8----|--------------------------------|
E|--------------------------------| 0------ 6---- 0-------- 6------|
Classical Guitar Tablature http://classicalguitartablature.blogspot.com/
E|-------------- 6------ 9------ 7|-------------- 4----------------|
B|---------- 5-- 7------ 9-- 9-- 9|---- 9---- 9-- 4------ 5--------|
G|-- 6------ 6-- 9---- 9--------11|----------11------ 4-- 4------ 3|
D|--------------------------------|-------------------------- 6----|
A|--------------------------------|--------------------------------|
E| 0------ 6---- 0------ 6------ 0|------ 6-------- 0---- 6------ 0|
Classical Guitar Tablature http://classicalguitartablature.blogspot.com/
E|--------------------------------|------ 4-------------- 4--------|
B|--------------------------------|-- 5 7---- 7 5---- 5 7---- 7 5--|
G|------------------------------ 7|-------------- 7----------------|
D|-- 6-------- 6---- 6------ 6----|--------------------------------|
A|--------------------------------|--------------------------------|
E|------ 6------ 0------ 6------ 0|------ 6------ 0------ 6--------|
Classical Guitar Tablature http://classicalguitartablature.blogspot.com/
E| 4-------------- 4--------------|---------- 0-------- 2---- 5-- 3|
B| 5------ 5------ 5------ 3---- 1|---------- 1-------- 1-------- 5|
G|-- 4---- 4------ 4-- 4-- 4------| 0-------- 0-------- 0-------- 5|
D|------------ 6-------------- 6--| 2------------------------------|
A|--------------------------------| 3---------------------------- 4|
E| 0------ 6------ 0------ 6------|---------------- 3--------------|
Classical Guitar Tablature http://classicalguitartablature.blogspot.com/
E|---------- 0------------------ 2|---- 2 2---- 3------ 7----------|
B|-------------------- 1-------- 4|------ 4---- 5---------- 5-- 7--|
G|-------------------------- 2----|--------------------------------|
D|--------------------------------|--------------------------------|
A|--------------------------------|--------------------------------|
E|---------------- 3------------ 1|---- 1-- 1-- 0------------------|
Classical Guitar Tablature http://classicalguitartablature.blogspot.com/
E|--------------------------------|---------- 5--------------------|
B| 8 7-- 5------------------ 5----|-- 7---------- 8---------- 5----|
G|---------- 5--------------------|--------------------------------|
D|--------------------------------|--------------------------------|
A|--------------------------------|--------------------------------|
E|--------------------------------|--------------------------------|
Classical Guitar Tablature http://classicalguitartablature.blogspot.com/
E|---------- 8--11-- 8--10-- 8----|-- 5------ 5-- 5-- 5------ 5----|
B|--------------------------------|-- 8---------- 8-- 8------------|
G|-- 5----------------------------|-- 8------ 8-- 8-- 8------ 8----|
D|--------------------------------|--------------------------------|
A|------------------------------ 6|------ 0------ 6------ 0------ 6|
E|--------------------------------|--------------------------------|
Classical Guitar Tablature http://classicalguitartablature.blogspot.com/
E|-- 5------ 5-- 5-- 5------ 5----|-------------------- 1---- 4-- 2|
B|-- 8---------- 8-- 8------------|---------- 4-------- 4---- 4-- 4|
G|-- 8------ 8-- 8-- 8------ 8-- 4|-------- 4 4--------------------|
D|--------------------------------|---- 3-------- 3-------- 3------|
A|------ 0------ 6------ 0------ 2|------------------------------ 2|
E|--------------------------------|---------- 1--------------------|
Classical Guitar Tablature http://classicalguitartablature.blogspot.com/
E|--------------------------------|--------------------------------|
B|------------ 4------------------|--------------------------------|
G|------ 4---- 4------ 4------ 1--|--------------------------------|
D|---- 3-------- 3------------ 3 3|------------ 4------ 4-- 4 4----|
A|------------------------------ 2|--------------------------------|
E|------------ 1-------------- 1--|------------ 1---------------- 7|
Classical Guitar Tablature http://classicalguitartablature.blogspot.com/
E|--------------------------------|------------------ 1------11----|
B|-- 6-- 6------ 6------ 6--------|---------- 4------ 4------------|
G|-- 8-- 8------ 8------ 8------ 4|------ 4-- 4------ 4------------|
D|-- 9-- 9------ 9------ 9--------|-- 3------ 3--------------------|
A|---------- 8------ 8------ 8-- 2|--------------------------------|
E|--------------------------------|------------ 1------------------|
Classical Guitar Tablature http://classicalguitartablature.blogspot.com/
E| 9---------- 7------------------|--------------------------------|
B| 6------ 6----------10-------- 2|------------ 4------------------|
G|---- 8----------------------10--|------ 4---- 4---- 4-- 4-- 4----|
D|--------------------------------|---- 3------ 3---- 3-- 3-- 3----|
A|------------ 8------ 8------ 8--| 2------------------------------|
E| 7------------------------------|------------ 1---------------- 7|
Classical Guitar Tablature http://classicalguitartablature.blogspot.com/
E|-- 9-- 9-- 9--11--11--13--13-- 8|--------------------------------|
B|-- 7-- 7-- 7-- 7-- 7--12--12-- 8|----1210---- 810---- 8-- 7------|
G|-- 8-- 8-- 8-- 8-- 8--11--11----|---- 9 9---- 9 9---- 9-- 9-- 9--|
D|--------------------------------|--------------10----10--10------|
A|--------------------------------|--------10--------------10------|
E|------------------------------ 8|---------------- 8--------------|
Classical Guitar Tablature http://classicalguitartablature.blogspot.com/
E|--------------------------------|--------------------------------|
B|10-- 8-- 7---------- 5-- 7------| 8-- 7-- 8----------------------|
G| 9-- 9-- 9-- 9-- 7------ 9-- 9--| 9------ 9-- 9------ 9------ 9--|
D|10--10--10------ 5------10------|10------10--10------10------10--|
A|--------10--------------10------|--------10--------------10------|
E| 8-------------- 8--------------| 8-------------- 8--------------|
Classical Guitar Tablature http://classicalguitartablature.blogspot.com/
E|--------------------------------|---------------- 3--------------|
B|---------------- 8------11------| 4------------------ 4------ 4--|
G| 5------ 9------ 9------ 9------| 3-- 3------ 3-- 5-- 5------ 5--|
D|---- 5----10--------10------ 8--| 5-- 5------ 5------------------|
A|------10----------------10------| 6------ 0------ 6------ 0------|
E| 8-------------- 8--------------|--------------------------------|
Classical Guitar Tablature http://classicalguitartablature.blogspot.com/
E|---------------- 5---- 8--------| 6------------------------------|
B|---- 4------ 4-- 6------ 8-- 8--| 8------------ 8-------- 4------|
G|---- 5------ 5-- 8-- 8----------|10--10------10-- 7------ 3------|
D|--------------------------------|-------------------- 8------ 5--|
A| 6------ 0------ 6------ 0------| 6------ 0---- 6-------- 0------|
E|--------------------------------|--------------------------------|
Classical Guitar Tablature http://classicalguitartablature.blogspot.com/
E|--------------------------------|------ 5-------------- 5--------|
B|--------------------------------|-- 6 8---- 8 6---- 6 8---- 8 6--|
G| 2---------------------------- 8|-------------- 8----------------|
D| 5-- 5------ 5------ 5------ 5--|--------------------------------|
A| 6------ 0------ 6------ 0---- 6|------ 0------ 6------ 0------ 6|
E|--------------------------------|--------------------------------|
Classical Guitar Tablature http://classicalguitartablature.blogspot.com/
E|--------------------------------|--------------------------------|
B|--------------------------------|--------------------------------|
G|---- 0-- 2 0-------- 0-- 2 0----| 5------ 6------ 5------ 6------|
D|-- 3-------- 3---- 3-------- 3--|---- 5------ 5------ 5------ 5--|
A|-------- 0---- 6-------- 0------| 6-------------- 6--------------|
E|--------------------------------|-------- 5-------------- 5------|
Classical Guitar Tablature http://classicalguitartablature.blogspot.com/
E|--------------------------------|--------------------------------|
B|--------------------------------|---- 8-- 8---------- 8-- 8-- 8--|
G| 5---- 6------ 5------ 6--------|----10--10----------10--10--10--|
D|---- 5---- 5------ 5------ 5----|----11--11----------11--11--11--|
A| 6---------------------- 3------|------------10------------------|
E|-------- 3------ 5--------------| 9------------------------------|
Classical Guitar Tablature http://classicalguitartablature.blogspot.com/
E|---------------- 3--------------|--------------------------------|
B|---- 8-- 8------ 6------ 6------|---- 8-- 8---------- 8-- 8-- 8--|
G|----10--10------ 6------ 6------|----10--10----------10--10--10--|
D|----11--11----------------------|----11--11----------11--11--11--|
A|--------------------------------|------------10------------------|
E| 9---------- 3-------- 3---- 3--| 9------------------------------|
Classical Guitar Tablature http://classicalguitartablature.blogspot.com/
E|---------------- 3--------------|-------------------- 3------ 6--|
B|---- 8-- 8------ 6------ 6------|------------ 6------ 6----------|
G|----10--10------ 6------ 6------| 6------ 6-- 6------------------|
D|----11--11----------------------|---- 5---------- 5------ 5------|
A|--------------------------------| 4------------------------------|
E| 9---------- 3-------- 3---- 3--|------------ 3------------------|
Classical Guitar Tablature http://classicalguitartablature.blogspot.com/
E| 4-------- 1--------------------|--------------------------------|
B| 6---------- 2------------------|--------------------------------|
G|-------- 6------ 0---- 0-- 3----|------------ 1------ 0-- 0-- 1--|
D|---- 5------------------------ 5|-- 5-- 5---- 3------ 3-- 3-- 3--|
A| 4------------------------------| 4------------------------------|
E|------------ 3---- 3-------- 3--|-------------- 3---- 3------ 3--|
Classical Guitar Tablature http://classicalguitartablature.blogspot.com/
E|--------------------------------|--------------------------------|
B|---- 8-- 8-- 8-- 9--12----------| 8-- 8-- 8-- 9------------------|
G|----10--10--10------10----------| 6-- 6-- 6-- 6------------------|
D|----11--11--11------11----------| 6-- 6-- 6-- 6------------------|
A|------------10------10----------|--------------------------------|
E| 9------------------------------| 9-- 9-- 9-- 9------------------|
Classical Guitar Tablature http://classicalguitartablature.blogspot.com/

0 ความคิดเห็น:

แสดงความคิดเห็น