To celebrate the anniversary, I am giving you (finally...) : iPhone LickByNeck !!!!!!

So nice

Bossa Nova classic fingerstyle chord melody guitar arrangement played in the key of G

You need to install the Flash plugin - http://www.webestools.com/

http://classicalguitartablature.blogspot.com/
So Nice played in the key of G.
http://classicalguitartablature.blogspot.com/
E| 5 4-- 3------------------------| 5-- 4 3------ 3---- 4 5--------|
B| 3 3-- 3------ 8---- 910--------| 3------------ 3-------------- 7|
G| 4-- 4 4------------------------| 3------------ 3----------------|
D|--------------------------------| 3---------------------------- 7|
A|--------------------------------| 3---------------------------- 7|
E| 3------------10----------------|-------------- 3-------------- 7|
http://classicalguitartablature.blogspot.com/
E|--------------------------------|--------------------------------|
B|------ 7------------------------|---- 5------ 5------------------|
G| 7---- 7------------ 7------ 7--|---- 5------ 5------ 5----------|
D|------ 7------------ 6------ 6--|---- 5------ 5------ 4----------|
A|-------------- 7----------------|---------------- 5--------------|
E|--------------------------------| 5------------------------------|
http://classicalguitartablature.blogspot.com/
E|--------------------------------|--------------------------------|
B|-- 3-- 5---- 7---- 6-- 5--------|-- 3-- 5---- 7---- 6-- 5--------|
G| 4---------- 4---- 4---- 4---- 4|------------ 4---- 4-- 4------ 4|
D| 5---------- 4---- 4---- 4---- 5|------------ 4---- 4-- 4------ 6|
A|-------------- 5----------------|-------------- 5-------------- 4|
E| 3---------------------------- 3|--------------------------------|
http://classicalguitartablature.blogspot.com/
E|--------------------------------|------------ 2------------------|
B|------ 5---- 7------ 6-- 5------|---- 2 5---- 2---- 2-- 5------ 5|
G|-- 6---------------- 4-- 4------| 3---- 4---- 3---- 3-- 3------ 4|
D|------------ 6------ 6-- 6------| 2---- 2---------- 2---- 2------|
A|--------------------------------|-------------- 4-------------- 3|
E|---------------- 4--------------| 2------------------------------|
http://classicalguitartablature.blogspot.com/
E|---- 3 5---- 7------ 6-- 5------|-- 3-- 5---- 7------ 6 5--------|
B|------ 5---- 5------ 5-- 5------| 5---- 5---- 5------ 5 5--------|
G|------ 4---- 5------ 5-- 5------| 4---- 4---- 5------ 5-- 5---- 8|
D|---------------- 5--------------|---------------- 5------------ 8|
A|--------------------------------| 3------------------------------|
E|--------------------------------|------------------------------ 8|
http://classicalguitartablature.blogspot.com/
E|--------------------------------|--------------------------------|
B|-- 8--10----11------ 8--10------|---- 810----11---- 8--10--------|
G|------------ 8---------- 8---- 8|------------ 8---- 8-- 8--------|
D|------------10------ 8-- 8------|------------ 8---- 8-- 8--------|
A|--------------10-------------- 8|--------------------------------|
E|---- 8--------------------------|---------------- 8------------ 7|
http://classicalguitartablature.blogspot.com/
E|------10------------------------|--------------13--12--10-- 9-- 8|
B|------ 7------------------------|--------------12--12-- 9-- 9-- 5|
G|-------- 7---------- 7------ 7--|---- 7------ 713--13--10--10-- 5|
D|-------------------- 7------ 7--|---- 6---- 6----12---- 9--------|
A|---------------- 9--------------| 7------------------------------|
E|--------------------------------|------------------------------ 5|
http://classicalguitartablature.blogspot.com/
E|------ 8------------------------|--------------10-- 9-- 8-- 7----|
B|------ 5---------- 5------ 5----|-- 5------ 5------------------10|
G|------ 5---------- 5------ 5----|-- 5------ 5------------------ 7|
D|------------------ 5------ 5----|-- 5------ 5------------------ 9|
A|-------------- 7-------------- 5|------------------------------ 7|
E|--------------------------------|--------------------------------|
http://classicalguitartablature.blogspot.com/
E|--------------------------------|-------------- 7---- 6 5--------|
B|--------10----------10------10--|---- 7---- 7-- 5---- 5 5---- 8--|
G|-------- 7---------- 7------ 7--|---- 6---- 6---- 6--------------|
D|-------- 9---------- 9------ 9--|---- 5---- 5--------------------|
A|--------------------------------|--------------------------------|
E|-------------- 7----------------| 5-------------- 5--------------|
http://classicalguitartablature.blogspot.com/
E|-------------------------- 6----|------ 5------------------------|
B| 8---- 8---- 5 8-- 5-- 8-- 6----|-- 8-- 5------------------------|
G| 5-- 5-- 5-- 5 5------ 5-- 6----|------ 5------------------------|
D| 5-- 5-- 5-- 5-- 5 5------------|--------------------------------|
A|---------------- 7-------- 6----|-------- 5----------------------|
E| 5------------------------------|--------------------------------|
http://classicalguitartablature.blogspot.com/
E|--------------------------------|--------------------------------|
B|---- 3 5---- 7---- 6---- 5------|---- 3-- 5-- 7---- 6---- 5------|
G| 4---------- 4-------- 4--------| 4---------- 4---- 4---- 4---- 4|
D| 5---------- 4---------- 4---- 5|------------ 4---- 4-- 4------ 6|
A|---------------- 5--------------|-------------- 5-------------- 4|
E| 3------------------------------|--------------------------------|
http://classicalguitartablature.blogspot.com/
E|--------------------------------|------------ 2------------------|
B|------ 5-- 7------ 6-- 5--------|-- 2-- 5 4-- 2---- 2-- 5------ 5|
G|-- 6 4------------ 4-- 4------ 3|------------------ 3-- 3------ 4|
D|---------- 6---------- 6------ 2|--------------------------------|
A|--------------------------------|-------------- 4-------------- 3|
E|-------------- 4-------------- 2|--------------------------------|
http://classicalguitartablature.blogspot.com/
E|-- 3-- 5---- 7---- 6-- 5--------|-- 3---- 5-- 7---- 6-- 5--------|
B|------------ 5---- 5-- 5------ 5|------ 5---- 5---- 5-- 5--------|
G|------------ 5---- 5---- 5---- 4|-------- 4-- 5------ 5-- 5---- 8|
D|---------------- 5--------------|---------------- 5------------10|
A|--------------------------------| 3------ 3----------------------|
E|--------------------------------|------------------------------ 8|
http://classicalguitartablature.blogspot.com/
E|--------------------------------|--------------------------------|
B|-- 8--10----11---- 8--10--------|---- 810----11---- 8----10------|
G|---------- 8------ 8-- 8--------| 8---------- 8---- 8-- 8--------|
D|------------------ 8-- 8------ 8|------------ 8---- 8-- 8--------|
A|--------------10-------------- 8|--------------------------------|
E|--------------------------------|-------------- 8----------------|
http://classicalguitartablature.blogspot.com/
E|------10------------------------|--------------13--12--10-- 9-- 8|
B|------ 7------------------------|--------------12--12-- 9-- 9----|
G|------ 7------------ 7---- 7----|-- 7------ 7--13--13--10--10-- 5|
D|-------------------- 7---- 7----|-- 6------ 6----12---- 9--------|
A|-------------- 9-------------- 7|--------------------------------|
E| 7------------------------------|------------------------------ 5|
http://classicalguitartablature.blogspot.com/
E|------ 8------------------------|--------------------------------|
B| 5---- 5------------ 5----------|---- 5------ 5------ 5------ 5--|
G|------ 5------------ 5------ 5--|---- 5------ 5---------- 5-- 5--|
D|-------------------- 5------ 5--|---- 4------ 4------ 4------ 4--|
A|-------------- 7----------------| 5------------------------------|
E|--------------------------------|---------------- 5--------------|
http://classicalguitartablature.blogspot.com/
E| 5 4-- 3---------------------- 5|-- 4-- 3------ 3-- 4-- 5--------|
B| 3------------ 8-- 9--10------ 3|-------------- 3-------------- 8|
G| 4---------------------------- 3|-------------- 3----------------|
D|--------------------------------|------------------------------ 7|
A|------------------------------ 3|--------------------------------|
E| 3------------10----------------|-------------- 3----------------|
http://classicalguitartablature.blogspot.com/
E|--------------------------------|--------------------------------|
B|-------- 8---------- 8---- 8----|---- 5------ 5------ 5---- 5----|
G|-- 7---- 7---------- 7------ 7--|---- 5------ 5------ 5---- 5----|
D|-------- 7---------- 6------ 6--|---- 5------ 5------ 4---- 4----|
A|-------------- 7----------------|---------------- 5--------------|
E| 7------------------------------| 5------------------------------|
http://classicalguitartablature.blogspot.com/
E|--------------------------------|--------------------------------|
B|--------------------------------|--------------------------------|
G| 2------------------------------|--------------------------------|
D| 2------------------------------|--------------------------------|
A|--------------------------------|--------------------------------|
E| 3------------------------------|--------------------------------|
http://classicalguitartablature.blogspot.com/

0 ความคิดเห็น:

แสดงความคิดเห็น