To celebrate the anniversary, I am giving you (finally...) : iPhone LickByNeck !!!!!!

Souvenir D'enfance (Basic)

Richard Clayderman's tune chord melody guitar BASIC arrangement played in the key of A.
http://classicalguitartablature.blogspot.com/

http://classicalguitartablature.blogspot.com/
Souvenir D'enfance-Richard Clayderman-BASIC ARRANGEMENT played In the key of A
http://classicalguitartablature.blogspot.com/
E|--------------------------------|--------------------------------|
B| 5---------- 5---------- 5------|---- 5-- 7---------- 7----------|
G|---- 6---------- 6---------- 6--|------------ 7---------- 7------|
D|-------- 7---------- 7----------| 7-------------- 7---------- 7--|
A| 0------------------------------|-------- 0----------------------|
E|--------------------------------|--------------------------------|
http://classicalguitartablature.blogspot.com/
E|--------------------------------|--------------------------------|
B| 7---------- 7-- 5---------- 5--|------ 5------------------------|
G|-- 7---------------- 6----------| 6-------- 6-------- 4----------|
D|-------- 7-------------- 7------|---- 7---------- 7-------- 2----|
A|---------------- 0--------------|--------------------------------|
E|--------------------------------|-------------------- 0----------|
http://classicalguitartablature.blogspot.com/
E|------------ 4------ 7----------|12----------12--------12--------|
B|------ 5------------------------|--14------------14--------14----|
G| 4------------------------------|--------14----------14----------|
D|--------------------------------|--------------------------------|
A|--------------------------------| 0------------------------------|
E|--------------------------------|--------------------------------|
http://classicalguitartablature.blogspot.com/
E|--12----14----------14----------|14----------14--12----------12--|
B|------------15----------15------|----15--------------14----------|
G|14--------------14----------14--|--------14--------------14------|
D|--------------------------------|--------------------------------|
A|-------- 0----------------------|---------------- 0--------------|
E|--------------------------------|--------------------------------|
http://classicalguitartablature.blogspot.com/
E|--------12------------------ 0--|----------12------16----------19|
B|14----------14--------12--------|--12----------------------------|
G|----14----------14--------------|--------------------------------|
D|--------------------------------|--------------------------------|
A|--------------------------------|--------------------------------|
E|---------------------- 0--------|--------------------------------|
http://classicalguitartablature.blogspot.com/
E|---------------- 9--------------|--------------------------------|
B|------------------10--10---- 5--|---- 2--------------------------|
G|-------------------- 9-- 9------| 6---- 2-- 2--------------------|
D|--------------------------11----|-- 7---- 2-- 2---- 2---------- 0|
A|---------------- 0--------------|-------------- 4---- 4 0 2------|
E|--------------------------------|--------------------------------|
http://classicalguitartablature.blogspot.com/
E|------ 7------------ 0----------|------------------------------ 9|
B|-------- 9-- 9-------- 0-- 0----|--------------------------------|
G|-- 1------ 9-- 9-------- 1-- 1--|-- 1-------------------- 2------|
D|------------------ 9---------- 2|---- 2-- 2---------- 2----------|
A|--------------------------------|------ 2---- 2-- 0------------ 0|
E|------ 0------------------------|-------------- 4----------------|
http://classicalguitartablature.blogspot.com/
E|--------------------------------|-------------------- 7----------|
B|10--10------ 5---- 2------------|---------------------- 9-- 9----|
G|-- 9-- 9------ 6---- 2-- 2------|---------------- 1------ 9---- 9|
D|--------11------ 7---- 2---- 2--| 2---------- 0------------------|
A|------------------------------ 4|-- 4 0-- 2----------------------|
E|--------------------------------|-------------------- 0----------|
http://classicalguitartablature.blogspot.com/
E|-- 0----------------------------|--------------------------------|
B|---- 0-- 0----------------------|-------- 2------ 2------ 2---- 3|
G|------ 1-- 1---- 1--------------|--------------------------------|
D| 9---------- 2---- 2-- 2--------|---- 2------ 2------ 2------ 2--|
A|-------------------- 2---- 2----| 0------------------------------|
E|---------------------------- 4--|--------------------------------|
http://classicalguitartablature.blogspot.com/
E|--------------------------------|--------------------------------|
B|-------- 3------ 3------ 3------|-------- 2------ 2------ 2------|
G|--------------------------------|--------------------------------|
D| 4-- 4------ 4------ 4------ 4--|---- 2------ 2------ 2------ 2--|
A| 0------------------------------| 0------------------------------|
E|--------------------------------|--------------------------------|
http://classicalguitartablature.blogspot.com/
E|--------------------------------|--------------------------------|
B|--------------------------------| 0-- 2-- 2-- 2---------- 2------|
G|---------------- 2------ 4------| 2------ 2-- 2------------------|
D|-------- 2----------------------| 2-- 2-- 2---------- 2---- 2----|
A| 0------------------------------| 0------------------------------|
E|--------------------------------|--------------------------------|
http://classicalguitartablature.blogspot.com/
E|--------------------------------|--------------------------------|
B|------------ 0-- 3-- 2-- 0------| 0-- 2-- 2-- 2---------- 2------|
G|-------- 2-- 2-- 2-- 2-- 2-- 2--| 2-- 2-- 2-- 2------------------|
D|---- 2------ 2-- 2-- 2-- 2------| 2-- 2-- 2-- 2------ 2------ 2--|
A| 0------------------------------| 0------------------------------|
E|--------------------------------|--------------------------------|
http://classicalguitartablature.blogspot.com/
E|--------------------------------|--------------------------------|
B|------------ 0-- 3-- 2-- 0------|--------------------------------|
G|-------- 2------ 2-- 2------ 2--|---- 4-- 4-- 4---------- 4------|
D|---- 2---------- 2-- 2----------| 4-- 4-- 4-- 4------ 4------ 4--|
A| 0------------------------------| 2------------------------------|
E|--------------------------------|--------------------------------|
http://classicalguitartablature.blogspot.com/
E|--------------------------------|--------------------------------|
B|---------------- 0------ 0------| 0-- 2-- 2-- 2---------- 2------|
G|-------- 1-- 2------ 2------ 2--| 2-- 2-- 2-- 2------------------|
D|---- 0--------------------------| 2-- 2-- 2-- 2------ 2------ 2--|
A|--------------------------------| 0------------------------------|
E| 0------------------------------|--------------------------------|
http://classicalguitartablature.blogspot.com/
E|------------------------ 7------|---- 9-- 9-- 9---------- 9------|
B|----------------10--------------|12------------------------------|
G|-------- 9----------------------| 9------------------ 9------ 9--|
D|--------------------------------|11------------------------------|
A|--------------------------------| 0------------------------------|
E| 0------------------------------|--------------------------------|
http://classicalguitartablature.blogspot.com/
E|----------------10-- 9----------|---- 9-- 9-- 9---------- 9------|
B|------------12----------12--10--|12------------------------------|
G|-------- 9----------------------| 9------------------ 9------ 9--|
D|----11--------------------------|11------------------------------|
A| 0------------------------------| 0------------------------------|
E|--------------------------------|--------------------------------|
http://classicalguitartablature.blogspot.com/
E|----------------10-- 9----------|---- 7-- 7-- 7------------------|
B|------------12----------12--10--| 7-- 7------ 7-------------- 7--|
G|-------- 9----------------------| 7-- 7-- 7-- 7---------- 7------|
D|----11--------------------------| 9------------------ 9----------|
A| 0------------------------------|--------------------------------|
E|--------------------------------| 7------------------------------|
http://classicalguitartablature.blogspot.com/
E|-------------- 7-------- 7------|---- 9-- 9-- 9------------------|
B|------------10------10------10--|12--12--12------------------12--|
G|-------- 7-- 7------ 7------ 7--| 9-- 9-- 9-- 9---------- 9------|
D|---- 9--------------------------|11------------------11----------|
A|--------------------------------| 0------------------------------|
E| 0------------------------------|--------------------------------|
http://classicalguitartablature.blogspot.com/
E|--------------------------------|---- 9---- 9---- 9--------------|
B|------------10--12--10--12--10--|12--12----12----12--------------|
G|--------10--10--10--10--10--10--| 9-- 9---- 9---- 9--------------|
D|----12--------------------------|11--------------------------11--|
A| 0------------------------------| 0------------------------------|
E|--------------------------------|--------------------------------|
http://classicalguitartablature.blogspot.com/
E|---------------- 9--------------|--------------------------------|
B|--------12--------10--10---- 5--|---- 2--------------------------|
G|-- 9---------------- 9-- 9------| 6---- 2-- 2--------------------|
D|--------------------------11----|-- 7---- 2-- 2---- 2---------- 0|
A|---------------- 0--------------|-------------- 4---- 4 0 2------|
E|--------------------------------|--------------------------------|
http://classicalguitartablature.blogspot.com/
E|------ 7------------ 0----------|------------------------------ 9|
B|-------- 9-- 9-------- 0-- 0----|--------------------------------|
G|-- 1------ 9-- 9-------- 1-- 1--|-- 1-------------------- 2------|
D|------------------ 9---------- 2|---- 2-- 2---------- 2----------|
A|--------------------------------|------ 2---- 2-- 0------------ 0|
E|------ 0------------------------|-------------- 4----------------|
http://classicalguitartablature.blogspot.com/
E|--------------------------------|-------------------- 7----------|
B|10--10------ 5---- 2------------|---------------------- 9-- 9----|
G|-- 9-- 9------ 6---- 2-- 2------|---------------- 1------ 9---- 9|
D|--------11------ 7---- 2---- 2--| 2---------- 0------------------|
A|------------------------------ 4|-- 4 0-- 2----------------------|
E|--------------------------------|-------------------- 0----------|
http://classicalguitartablature.blogspot.com/
E|-- 0----------------------------|--------------------------------|
B|---- 0-- 0----------------------|-------- 2------ 2------ 2---- 3|
G|------ 1-- 1---- 1--------------|--------------------------------|
D| 9---------- 2---- 2-- 2--------|---- 2------ 2------ 2------ 2--|
A|-------------------- 2---- 2----| 0------------------------------|
E|---------------------------- 4--|--------------------------------|
http://classicalguitartablature.blogspot.com/
E|--------------------------------|--------------------------------|
B|-------- 3------ 3------ 3------|-------- 2-------- 2-------- 2--|
G|--------------------------------|-------- 2-------- 2------------|
D| 4-- 4------ 4------ 4------ 4--|---- 2------ 2-------- 2--------|
A| 0------------------------------| 0------------------------------|
E|--------------------------------|--------------------------------|
http://classicalguitartablature.blogspot.com/
E|--------------------------------|--------------------------------|
B|---------- 2--------------------|--------------------------------|
G|---------- 2--------------------|--------------------------------|
D|-- 2---- 2----------------------|--------------------------------|
A|-------- 0----------------------|--------------------------------|
E|--------------------------------|--------------------------------|
http://classicalguitartablature.blogspot.com/

0 ความคิดเห็น:

แสดงความคิดเห็น