To celebrate the anniversary, I am giving you (finally...) : iPhone LickByNeck !!!!!!

Spain

Chick Corea 's classic fingerstyle chord melody guitar arrangment played in the key of C#m.
http://classicalguitartablature.blogspot.com/

http://classicalguitartablature.blogspot.com/
Spain played in the key of C#m.
http://classicalguitartablature.blogspot.com/
E|--------------------------------|--------------------------------|
B|-------- 9------ 7---------- 5--|---- 4------ 4---- 2------------|
G| 9---------- 9------ 9-- 6------|---- 4-- 4-------- 3---- 2------|
D| 9-------------------- 6--------|------------------ 2-- 1--------|
A|--------------------------------|--------------------------------|
E| 9---- 8-------- 7---- 6------ 5|-------- 4---- 3-------- 1------|
http://classicalguitartablature.blogspot.com/
E|--------------------------------|--------------------------------|
B| 0---------- 0-- 0-------- 0----|--------------------------------|
G| 2---------- 2------------ 2----|---------------- 1---------- 1--|
D| 2---------- 2------------ 2----|---------------- 1---------- 1--|
A|--------------------------------|---------------- 4---------- 4--|
E| 2------------------------ 2----|---------------- 4--------------|
http://classicalguitartablature.blogspot.com/
E|--------------------------------|--------------------------------|
B|--------------------------------|--------------------------------|
G|-------- 1----------------------|---------------------- 1--------|
D| 1------ 1----------------------|--------------------------------|
A|-------- 4----------------------|--------------------------------|
E|-------- 4----------------------|--------------------------------|
http://classicalguitartablature.blogspot.com/
E|--------------------------------|--------------------------------|
B|---------------------- 2------ 4|-------- 5------------ 7------ 5|
G| 2-------- 4------------------ 4|-------- 4------------ 4------ 5|
D| 2-------- 2------------------ 4|-------- 4------------ 4------ 4|
A|--------------------------------|--------------------------------|
E| 5---------- 0 0----------------| 5------ 0---- 0-------------- 4|
http://classicalguitartablature.blogspot.com/
E|--------------------------------|--------------------------------|
B|-- 7 5---- 4--------------------|--------------------------------|
G|---------- 5-- 5------ 5------ 5|--------------------------------|
D|---------- 4-- 4------ 4------ 4|--------------------------------|
A|---------- 6-- 6----------------|------------ 6------------------|
E|------------------------------ 4|------------------------ 4------|
http://classicalguitartablature.blogspot.com/
E|--------------------------------|--------------------------------|
B|---------------------- 2------ 4|-------- 5------------ 7------ 5|
G| 2-------- 4---------- 3------ 2|-------- 2------------ 4------ 4|
D| 2-------- 2---------- 2------ 4|-------- 2------------ 4------ 6|
A|---------- 4-- 4------ 3--------| 2-------- 4 4-------- 6--------|
E| 2------------------------------|------------------------------ 0|
http://classicalguitartablature.blogspot.com/
E|---------- 4--------------------|--------------------------------|
B|------ 7-- 5--------------------|-------------------- 7------ 5--|
G|------ 4-- 4--------------------| 6------------------ 6------ 6--|
D|------ 6------------------------| 6------------------ 6------ 6--|
A|--------------------------------|--------------------------------|
E|------------ 7---------- 0------| 5------------ 0-------- 5------|
http://classicalguitartablature.blogspot.com/
E|--------------------------------|--------------------------------|
B| 4---------- 5---------- 7------| 5---------- 4---------------- 4|
G| 6---------- 6---------- 6------| 5---------- 5---------------- 4|
D| 5---------- 5---------- 5------| 4---------- 4------------------|
A| 6------------------------------|------ 6------------------------|
E|------------ 6---------- 5------| 4-------------------- 4--------|
http://classicalguitartablature.blogspot.com/
E|--------------------------------|--------------------------------|
B|------------ 2------------------|------------------------------ 2|
G|------------ 4------------------| 4---------------------------- 2|
D| 2---------- 2------------------| 2---------------------------- 2|
A| 4-------------------- 4--------| 4------------------------------|
E|------------ 4------------------|--------------------------------|
http://classicalguitartablature.blogspot.com/
E|---------- 2-------------- 5----| 4------------ 2----------------|
B|---------- 2-------------- 2----| 2---- 5-- 2--------------------|
G|---------- 2-------------- 2----| 2---- 2-- 2-------------- 4----|
D|--------------------------------|---------- 2--------------------|
A|---------- 4--------------------| 2-------------------- 2--------|
E| 2-------------------- 2--------|---------- 2--------------------|
http://classicalguitartablature.blogspot.com/
E|--------------------------------|--------------------------------|
B|------------ 5-- 4--------------|---- 2------------------ 5------|
G| 4---------- 4------------------| 4---------- 2------ 2-- 2------|
D| 6---------- 4------------------| 2---------- 2---------- 2------|
A| 7------------------------------|--------------------------------|
E|------------ 7---------- 0------| 5------------ 0-------- 5------|
http://classicalguitartablature.blogspot.com/
E| 2-------- 2-- 5------ 4--------|---------------- 2--------------|
B| 2-------- 2---------- 2-- 5-- 2|---- 5---- 2---- 2---- 4---- 2--|
G| 2-------- 2---------- 2-- 2-- 2|------------ 2-- 2------ 2-- 2--|
D|-------------------------- 2-- 2|------ 2---- 2---------- 4-- 2--|
A|---------- 4--------------------| 2-------- 2------------ 2------|
E| 2-------------------- 2--------|------------ 2---------------- 4|
http://classicalguitartablature.blogspot.com/
E|--------------------------------|--------------------------------|
B|--------------------------------| 4------------------------------|
G|---------------------------- 6--| 6---------- 6------------------|
D|---- 6-- 4---------- 6----------| 4---------- 4------ 7-- 6------|
A|---- 6-- 6---------- 6----------|------------ 6------------------|
E|------------ 4---------- 4------| 4---------------------- 4------|
http://classicalguitartablature.blogspot.com/
E|--------------------------------|------------ 4---------- 4------|
B|--------------------------------|------------------------ 4------|
G|--------------------------------|------------------------ 6------|
D|-------- 6------ 8----10-- 9----|---- 6--------------------------|
A|---- 6------ 6---- 6------------|--------------------------------|
E|--------------------------------| 4---------------------- 4------|
http://classicalguitartablature.blogspot.com/
E|--------------------------------|--------------------------------|
B| 7---------- 5---------- 2------|--------------------------------|
G| 6---------- 4---------- 4------|--------------------------------|
D| 7---------- 4---------- 2------|--------------------------------|
A|------------------------ 4------|--------------------------------|
E| 5---------- 7------------------|--------------------------------|
http://classicalguitartablature.blogspot.com/
E|--------------------------------|--------------------------------|
B|-------- 9------ 7---------- 5--|---- 4------ 4---- 2------------|
G| 9---------- 9------ 9-- 6------|---- 4-- 4-------- 3---- 2------|
D| 9-------------------- 6--------|------------------ 2-- 1--------|
A|--------------------------------|--------------------------------|
E| 9---- 8-------- 7---- 6------ 5|-------- 4---- 3-------- 1------|
http://classicalguitartablature.blogspot.com/
E|--------------------------------|--------------------------------|
B| 0---------- 0-- 0-------- 0----|--------------------------------|
G| 2---------- 2------------ 2----|---------------- 1---------- 1--|
D| 2---------- 2------------ 2----|---------------- 1---------- 1--|
A|--------------------------------|---------------- 4---------- 4--|
E| 2------------------------ 2----|---------------- 4--------------|
http://classicalguitartablature.blogspot.com/
E|--------------------------------|--------------------------------|
B|--------------------------------|--------------------------------|
G|-------- 1----------------------|---------------------- 1--------|
D| 1------ 1----------------------|--------------------------------|
A|-------- 4----------------------|--------------------------------|
E|-------- 4----------------------|--------------------------------|
http://classicalguitartablature.blogspot.com/
E|--------------------------------|--------------------------------|
B|---------------------- 2------ 4|-------- 5------------ 7------ 5|
G| 2-------- 4------------------ 4|-------- 4------------ 4------ 5|
D| 2-------- 2------------------ 4|-------- 4------------ 4------ 4|
A|--------------------------------|--------------------------------|
E| 5---------- 0 0----------------| 5------ 0---- 0-------------- 4|
http://classicalguitartablature.blogspot.com/
E|--------------------------------|--------------------------------|
B|-- 7 5---- 4--------------------|--------------------------------|
G|---------- 5-- 5------ 5------ 5|--------------------------------|
D|---------- 4-- 4------ 4------ 4|--------------------------------|
A|---------- 6-- 6----------------|------------ 6------------------|
E|------------------------------ 4|------------------------ 4------|
http://classicalguitartablature.blogspot.com/
E|--------------------------------|--------------------------------|
B|---------------------- 2------ 4|-------- 5------------ 7------ 5|
G| 2-------- 4---------- 3------ 2|-------- 2------------ 4------ 4|
D| 2-------- 2---------- 2------ 4|-------- 2------------ 4------ 6|
A|---------- 4-- 4------ 3--------| 2-------- 4 4-------- 6--------|
E| 2------------------------------|------------------------------ 0|
http://classicalguitartablature.blogspot.com/
E|---------- 4--------------------|--------------------------------|
B|------ 7-- 5--------------------|-------------------- 7------ 5--|
G|------ 4-- 4--------------------| 6------------------ 6------ 6--|
D|------ 6------------------------| 6------------------ 6------ 6--|
A|--------------------------------|--------------------------------|
E|------------ 7---------- 0------| 5------------ 0-------- 5------|
http://classicalguitartablature.blogspot.com/
E|--------------------------------|--------------------------------|
B| 4---------- 5---------- 7------| 5---------- 4---------------- 4|
G| 6---------- 6---------- 6------| 5---------- 5---------------- 4|
D| 5---------- 5---------- 5------| 4---------- 4------------------|
A| 6------------------------------|------ 6------------------------|
E|------------ 6---------- 5------| 4-------------------- 4--------|
http://classicalguitartablature.blogspot.com/
E|--------------------------------|--------------------------------|
B|------------ 2------------------|------------------------------ 2|
G|------------ 4------------------| 4---------------------------- 2|
D| 2---------- 2------------------| 2---------------------------- 2|
A| 4-------------------- 4--------| 4------------------------------|
E|------------ 4------------------|--------------------------------|
http://classicalguitartablature.blogspot.com/
E|---------- 2-------------- 5----| 4------------ 2----------------|
B|---------- 2-------------- 2----| 2---- 5-- 2--------------------|
G|---------- 2-------------- 2----| 2---- 2-- 2-------------- 4----|
D|--------------------------------|---------- 2--------------------|
A|---------- 4--------------------| 2-------------------- 2--------|
E| 2-------------------- 2--------|---------- 2--------------------|
http://classicalguitartablature.blogspot.com/
E|--------------------------------|--------------------------------|
B|------------ 5-- 4--------------|---- 2------------------ 5------|
G| 4---------- 4------------------| 4---------- 2------ 2-- 2------|
D| 6---------- 4------------------| 2---------- 2---------- 2------|
A| 7------------------------------|--------------------------------|
E|------------ 7---------- 0------| 5------------ 0-------- 5------|
http://classicalguitartablature.blogspot.com/
E| 2-------- 2-- 5------ 4--------|---------------- 2--------------|
B| 2-------- 2---------- 2-- 5-- 2|---- 5---- 2---- 2---- 4---- 2--|
G| 2-------- 2---------- 2-- 2-- 2|------------ 2-- 2------ 2-- 2--|
D|-------------------------- 2-- 2|------ 2---- 2---------- 4-- 2--|
A|---------- 4--------------------| 2-------- 2------------ 2------|
E| 2-------------------- 2--------|------------ 2---------------- 4|
http://classicalguitartablature.blogspot.com/
E|--------------------------------|--------------------------------|
B|--------------------------------| 4------------------------------|
G|---------------------------- 6--| 6---------- 6------------------|
D|---- 6-- 4---------- 6----------| 4---------- 4------ 7-- 6------|
A|---- 6-- 6---------- 6----------|------------ 6------------------|
E|------------ 4---------- 4------| 4---------------------- 4------|
http://classicalguitartablature.blogspot.com/
E|--------------------------------|------------ 4---------- 4------|
B|--------------------------------|------------------------ 4------|
G|--------------------------------|------------------------ 6------|
D|-------- 6------ 8----10-- 9----|---- 6--------------------------|
A|---- 6------ 6---- 6------------|--------------------------------|
E|--------------------------------| 4---------------------- 4------|
http://classicalguitartablature.blogspot.com/
E|--------------------------------|--------------------------------|
B| 7------------ 5------------ 2--|--------------------------------|
G| 6------------ 6------------ 2--|--------------------------------|
D| 4------------ 6------------ 2--|--------------------------------|
A|--------------------------------|--------------------------------|
E| 4-------------- 6--------------| 5---------- 0---------- 5------|
http://classicalguitartablature.blogspot.com/
E|--------------------------------|--------------------------------|
B| 5------------------------------| 5------------------------------|
G| 6------------------------------| 6------------------------------|
D| 6------------------------------| 6------------------------------|
A| 7------------------------------|---- 7--------------------------|
E|---------- 5------------ 0------| 5-------- 0---------- 5------ 5|
http://classicalguitartablature.blogspot.com/
E|--------------------------------|--------------------------------|
B|-------- 4---- 5---- 4----------| 5-------- 4--------------------|
G|---- 6------------------ 6------| 5-------- 5---------- 5--------|
D|---- 6--------------------------| 4-------- 4---------- 4--------|
A|--------------------------------|------------ 6------------------|
E|-------------- 0----------------| 4-------------------- 4--------|
http://classicalguitartablature.blogspot.com/
E|--------------------------------|--------------------------------|
B|--------------------------------|--------------------------------|
G|--------------------------------| 5---------- 6-------- 8--------|
D|--------------------------------| 4---------- 4-------- 6--------|
A|---------- 6--------------------|--------------------------------|
E| 4---------------------- 4------| 4---------- 6---------- 8------|
http://classicalguitartablature.blogspot.com/
E|------------------------------ 2|--------------------------------|
B|------------ 9---------------- 2|---------- 5---------- 2--------|
G|11----------11---------------- 2|---------- 2---------- 2--------|
D|10----------10------------------|---------- 2---------- 2--------|
A|11--------------------11--------|---------- 4--------------------|
E|------11---------------------- 2|---------------------- 2------ 2|
http://classicalguitartablature.blogspot.com/
E|--------------------------------|--------------------------------|
B|------------------------------ 4|-------- 4----------------------|
G|------ 2------------ 2-------- 2|-------- 2---------- 2----------|
D|------ 2------------ 2-------- 4|-------- 4---------- 4----------|
A|---------- 4--------------------| 2---------------------- 2---- 2|
E|------------------------ 2------|------------ 2------------------|
http://classicalguitartablature.blogspot.com/
E|--------------------------------| 0-------- 2------------ 4------|
B|---------- 2---- 4---- 5-- 7----| 0-------- 0---------- 0--------|
G|---- 4---------- 4---- 4-- 4----| 1-------- 1------------ 1------|
D|--------------------------------|--------------------------------|
A|---------------- 6--------------|------------ 2------------------|
E|--------------------------------| 0---------------------- 0------|
http://classicalguitartablature.blogspot.com/
E|--------------------------------|--------------------------------|
B|--------------------------------| 5------ 5-------------- 5---- 5|
G|--------------------------------| 6------ 6------------------ 6 6|
D|--------------------------------| 6------ 6-------------- 6---- 6|
A|---------- 2--------------------|--------------------------------|
E| 0---------------------- 0------| 5---------- 0---------- 5------|
http://classicalguitartablature.blogspot.com/
E|--------------------------------|--------------------------------|
B|-------------------- 7------ 5--| 4---------- 5---------- 7------|
G|-------------------- 6------ 6--| 6---------- 6---------- 6------|
D|-------------------- 6------ 6--| 5---------- 5---------- 5------|
A|--------------------------------|-- 6----------------------------|
E| 5---------- 0---------- 5------|------------ 6------------ 5----|
http://classicalguitartablature.blogspot.com/
E|--------------------------------|--------------------------------|
B|--------------------------------|--------------------------------|
G|------------------------ 6---- 5|------ 5------------ 5-------- 5|
D|------------------------ 5------| 4---- 4------------ 4-------- 4|
A|------------ 6------------------|---------- 6--------------------|
E| 5---------------------- 5------| 4-------------------- 4------ 4|
http://classicalguitartablature.blogspot.com/
E|--------------------------------|--------------------------------|
B|---------- 5-------- 4-------- 4|------------------------ 2------|
G|---------- 5-------- 5-------- 4|------------------------ 4------|
D|---------- 4---------- 4------ 2|--------------------------------|
A|---------------------- 5------ 4|------------------------ 4------|
E|--------------------------------|------------ 4------------------|
http://classicalguitartablature.blogspot.com/
E|--------------------------------|--------------------------------|
B| 2------------------------------| 3---------------------- 3------|
G|-- 4----------------------------| 4---------------------- 4------|
D|-- 2----------------------------| 3---------------------- 3------|
A|-- 4-------------------- 4------| 4---------------------- 4------|
E|-------------- 4----------------|------------ 4------------------|
http://classicalguitartablature.blogspot.com/
E|--------------------------------|--------------------------------|
B|--------------------------------|---------------------- 2------ 4|
G| 4-------------- 1--------------| 2-------- 4---------- 3------ 2|
D| 3-------------- 0--------------| 2-------- 2---------- 2------ 4|
A|--------------------------------|---------- 4-- 4------ 3--------|
E| 4-------------- 1--------------| 2------------------------------|
http://classicalguitartablature.blogspot.com/
E|--------------------------------|---------- 4--------------------|
B|-------- 5------------ 7------ 5|------ 7-- 5--------------------|
G|-------- 2------------ 4------ 4|------ 4-- 4--------------------|
D|-------- 2------------ 4------ 6|------ 6------------------------|
A| 2-------- 4 4-------- 6--------|--------------------------------|
E|------------------------------ 0|------------ 7---------- 0------|
http://classicalguitartablature.blogspot.com/
E|--------------------------------|--------------------------------|
B|-------------------- 7------ 5--| 4---------- 5---------- 7------|
G| 6------------------ 6------ 6--| 6---------- 6---------- 6------|
D| 6------------------ 6------ 6--| 5---------- 5---------- 5------|
A|--------------------------------| 6------------------------------|
E| 5------------ 0-------- 5------|------------ 6---------- 5------|
http://classicalguitartablature.blogspot.com/
E|--------------------------------|--------------------------------|
B| 5---------- 4---------------- 4|------------ 2------------------|
G| 5---------- 5---------------- 4|------------ 4------------------|
D| 4---------- 4------------------| 2---------- 2------------------|
A|------ 6------------------------| 4-------------------- 4--------|
E| 4-------------------- 4--------|------------ 4------------------|
http://classicalguitartablature.blogspot.com/
E|--------------------------------|---------- 2-------------- 5----|
B|------------------------------ 2|---------- 2-------------- 2----|
G| 4---------------------------- 2|---------- 2-------------- 2----|
D| 2---------------------------- 2|--------------------------------|
A| 4------------------------------|---------- 4--------------------|
E|--------------------------------| 2-------------------- 2--------|
http://classicalguitartablature.blogspot.com/
E| 4------------ 2----------------|--------------------------------|
B| 2---- 5-- 2--------------------|------------ 5-- 4--------------|
G| 2---- 2-- 2-------------- 4----| 4---------- 4------------------|
D|---------- 2--------------------| 6---------- 4------------------|
A| 2-------------------- 2--------| 7------------------------------|
E|---------- 2--------------------|------------ 7---------- 0------|
http://classicalguitartablature.blogspot.com/
E|--------------------------------| 2-------- 2-- 5------ 4--------|
B|---- 2------------------ 5------| 2-------- 2---------- 2-- 5-- 2|
G| 4---------- 2------ 2-- 2------| 2-------- 2---------- 2-- 2-- 2|
D| 2---------- 2---------- 2------|-------------------------- 2-- 2|
A|--------------------------------|---------- 4--------------------|
E| 5------------ 0-------- 5------| 2-------------------- 2--------|
http://classicalguitartablature.blogspot.com/
E|---------------- 2--------------|--------------------------------|
B|---- 5---- 2---- 2---- 4---- 2--|--------------------------------|
G|------------ 2-- 2------ 2-- 2--|---------------------------- 6--|
D|------ 2---- 2---------- 4-- 2--|---- 6-- 4---------- 6----------|
A| 2-------- 2------------ 2------|---- 6-- 6---------- 6----------|
E|------------ 2---------------- 4|------------ 4---------- 4------|
http://classicalguitartablature.blogspot.com/
E|--------------------------------|--------------------------------|
B| 4------------------------------|--------------------------------|
G| 6---------- 6------------------|--------------------------------|
D| 4---------- 4------ 7-- 6------|-------- 6------ 8----10-- 9----|
A|------------ 6------------------|---- 6------ 6---- 6------------|
E| 4---------------------- 4------|--------------------------------|
http://classicalguitartablature.blogspot.com/
E|------------ 4---------- 4------|--------------------------------|
B|------------------------ 4------| 7------------------------------|
G|------------------------ 6------| 6------------------------------|
D|---- 6--------------------------|-- 6----------------------------|
A|--------------------------------|--------------------------------|
E| 4---------------------- 4------| 5------------------------------|
http://classicalguitartablature.blogspot.com/
E|--------------------------------|--------------------------------|
B| 5------------------------------| 2------------------------------|
G| 4------------------------------| 4------------------------------|
D| 2------------------------------| 4------------------------------|
A| 3------------------------------| 4------------------------------|
E|--------------------------------|--------------------------------|
http://classicalguitartablature.blogspot.com/
E|--------------------------------|--------------------------------|
B| 2------------------------------|--------------------------------|
G| 4------------------------------|--------------------------------|
D| 4------------------------------|--------------------------------|
A| 4------------------------------|--------------------------------|
E|--------------------------------|--------------------------------|
http://classicalguitartablature.blogspot.com/

0 ความคิดเห็น:

แสดงความคิดเห็น