To celebrate the anniversary, I am giving you (finally...) : iPhone LickByNeck !!!!!!

Spanish Flea

Classic Herb Alpert & The Tijuana Brass' hit fingerstyle solo guitar arrangement played in the key of G.
http://classicalguitartablature.blogspot.com/

http://classicalguitartablature.blogspot.com/
Spanish Flea played in the key of G.
http://classicalguitartablature.blogspot.com/
E|--------------------------------|--------------------------------|
B|-------- 3-- 3-------- 3---- 3--|------ 3---------------- 3------|
G|------ 4---- 4-------- 4-- 4----|-------- 4-------------- 4------|
D|-------- 5-- 5-------- 5---- 5--|-------- 5-------------- 5------|
A|---------------- 5--------------|------------ 5------ 5----------|
E| 3------------------------------| 3------------------------------|
http://classicalguitartablature.blogspot.com/
E|--------------------------------|--------------------------------|
B|------ 3---- 3---------- 3-- 3--|------------------ 0-- 1-- 2-- 3|
G|------ 4---- 4---------- 4-- 4--|--------------------------------|
D|------ 5---- 5---------- 5-- 5--|--------------------------------|
A|---------------- 5--------------|--------------------------------|
E| 3------------------------------| 3---------------------------- 3|
http://classicalguitartablature.blogspot.com/
E|-------- 7------ 7--------------|--------------------------------|
B|----------------10--10------ 9--|------------ 9------ 5----------|
G| 4-------------- 8---------- 7--|-------- 7---------- 8 8---- 7--|
D|---- 5------ 5---------- 7-- 9--|---- 9-------------- 7 6--------|
A|--------------------------------| 7------------------------------|
E|---------------- 7--------------|---------------- 7---- 6--------|
http://classicalguitartablature.blogspot.com/
E|-------- 5------ 5-- 3---- 2----|--------------------------------|
B|-------- 5------ 2-- 2------ 3--|-------------------- 3-- 2-- 1--|
G| 6---------- 6-- 2-- 2------ 2--|---- 2---- 2-------- 2-- 2-- 2 4|
D|---- 5------------------ 2------|-------------------- 1-- 1---- 4|
A|--------------------------------|--------------------------------|
E| 5-------------- 3--------------| 2------ 0------ 1------ 2---- 3|
http://classicalguitartablature.blogspot.com/
E|------ 3------------ 3-- 5------|------ 6------------ 6-- 8----10|
B|-- 3-------- 5------ 5-- 5------|---- 6------ 8------ 8-- 8------|
G|------------ 4------ 4-- 5------| 7---------- 7------ 7-- 8------|
D|------------ 5------------------| 7---------- 8------------------|
A|------------ 3------------------|------------ 6------------------|
E|------------------------ 1------| 6---------------------- 4------|
http://classicalguitartablature.blogspot.com/
E|--------------------------------|------10----10--12--10-- 7------|
B|13----13----12------11--10------| 9---- 7---- 8--12--12--10--10--|
G|11----11----11------11--11------|11---- 7---- 7--10--10-- 7-- 7--|
D|----10------10------10--10------|10--------------------------10--|
A|--------------------------------|----------------11------ 9------|
E|10------------------------------|-------- 8-- 6------------------|
http://classicalguitartablature.blogspot.com/
E|-------- 7------ 7--------------|-------------------- 0----------|
B| 8--------------10--10------ 9--|------------ 9-------- 4--------|
G| 7-------------- 8-- 8------ 7--|-------- 7------------------ 7--|
D|---- 9------ 9---------- 7-- 9--|---- 9--------------------------|
A|10-------------- 9--------------| 7------------ 5----------------|
E|--------------------------------|------------------------------ 9|
http://classicalguitartablature.blogspot.com/
E|-------- 5----------------------|--------------------------------|
B|-------- 5------10-- 8------ 7--|------------ 7------ 3 2--------|
G| 6---------- 6-- 7------ 7-- 5--|-------- 5---------- 5------ 5--|
D|---- 5---------- 9---------- 7--|---- 7-------------- 4-------- 9|
A|--------------------------------|------------------------------10|
E|---------------- 7--------------| 5-------------- 4--------------|
http://classicalguitartablature.blogspot.com/
E|--------------------------------|-------- 6---------- 6-- 8------|
B|------ 8------------ 8--10------|---- 6------ 8---------- 7------|
G|---- 7------ 9---------- 8------| 7---------- 6---------- 5------|
D|------------ 8----------10--10--| 6---------- 8------------------|
A|------------ 9---------- 8------| 7---------- 6---------- 5------|
E|--------------------------------|--------------------------------|
http://classicalguitartablature.blogspot.com/
E|10------------------------------|--------10--1012----10-- 7------|
B| 7---------- 8------ 8-- 9------|10------ 8--1012---- 8--1010----|
G|-------- 7-- 7------ 7-- 7------| 8------ 7-- 9--11-- 9-- 7 7----|
D|---- 7------ 7------ 7-- 7------| 8------------------------10----|
A|--------------------------------| 8------------------ 7-- 8-- 9--|
E| 8------------------------------|-------- 7-- 8--10--------------|
http://classicalguitartablature.blogspot.com/
E| 3------------------------------|-------- 3------ 5------ 7------|
B| 3------ 3------ 3------ 3-- 3--|-------- 0------ 6------ 6------|
G| 4------ 4-- 4---------- 4-- 4--|-------- 0------ 5------ 4------|
D|-------- 5-- 5---------- 5-- 5--|--------------------------------|
A|---------------- 5--------------|---------------- 5------ 4------|
E| 3------------------------------| 3------ 1----------------------|
http://classicalguitartablature.blogspot.com/
E| 8---------------- 8--10---- 812|----10------ 8------------------|
B| 8---------------- 8-- 8---- 810|----10------ 8------11--10-- 8--|
G| 7---------- 7---- 7---- 7-- 7--|12------12-- 9------ 9-- 9-- 9--|
D|-------- 7----------------------|-------------------- 8-- 8-- 8--|
A|--------------------------------| 0--------------10------ 9------|
E| 8-------------- 7--------------|--------------------------------|
http://classicalguitartablature.blogspot.com/
E|---------------------------- 5--|-------------------- 1----------|
B| 6------------ 8---- 9------ 6--|------------ 6------ 4 5---- 4--|
G| 5------------10---- 9------ 5--|---- 5------ 5------ 2-- 3-- 5--|
D| 5-------------- 8-- 8----------|------------------------ 5-- 3--|
A| 8-- 7-- 6-- 5------------------| 0------------------------------|
E|---------------- 9---- 8--------|-------- 3---- 1-------- 3-- 5--|
http://classicalguitartablature.blogspot.com/
E|-------- 6-- 6------ 6-- 8-- 6--|10---------- 6------------------|
B| 3------ 3-- 3------ 6-- 6-- 6--|11--13------ 6------ 9-- 8-- 6--|
G| 3------------------ 5-- 5-- 5--|10--10------ 7------ 7-- 7-- 7--|
D|---- 3--------------------------|--------12---------- 6-- 6-- 6--|
A|--------------------------------|10-------------- 8------ 7------|
E| 6-------------- 5--------------|--------------------------------|
http://classicalguitartablature.blogspot.com/
E|--------------------------------|---- 3------ 5------------------|
B| 4-------------- 6-- 8----------| 7-- 2------ 3------ 3------ 3--|
G| 6------ 8------ 8-- 6----------| 5-- 2------ 2------ 2------ 2--|
D|---- 5------ 8-- 6-- 8------ 8--| 7------------------------------|
A| 6------------------------------|--------------------------------|
E|-------- 9------ 7------ 6------| 5------ 3------ 2------ 0------|
http://classicalguitartablature.blogspot.com/
E|--------------------------------|-------- 7------ 7--------------|
B| 3------------------ 0---- 2-- 3|----------------10--10------ 9--|
G| 5------------------ 1-- 5-- 5--| 4-------------- 8-- 8------ 7--|
D|---- 4------ 4------ 0-- 5-- 4--|---- 5------ 5---------- 7-- 9--|
A| 5------ 3---- 2---- 1----------|---------------- 9--------------|
E|------------------------ 5-- 4 3|--------------------------------|
http://classicalguitartablature.blogspot.com/
E|-------------------- 0----------|-------- 5----------------------|
B|------------ 9-------- 4--------|-------- 5------10-- 8------ 7--|
G|-------- 7------------------ 7--| 6---------- 6-- 7------ 7-- 5--|
D|---- 9--------------------------|---- 5---------- 9---------- 7--|
A| 7------------ 5----------------|--------------------------------|
E|------------------------------ 9|---------------- 7--------------|
http://classicalguitartablature.blogspot.com/
E|--------------------------------|--------------------------------|
B|------------ 7------ 3 2--------|------ 8------------ 8--10------|
G|-------- 5---------- 5------ 5--|---- 7------ 9---------- 8------|
D|---- 7-------------- 4-------- 9|------------ 8----------10--10--|
A|------------------------------10|------------ 9---------- 8------|
E| 5-------------- 4--------------|--------------------------------|
http://classicalguitartablature.blogspot.com/
E|-------- 6---------- 6-- 8------|10------------------------------|
B|---- 6------ 8---------- 7------| 7---------- 8------ 8-- 9------|
G| 7---------- 6---------- 5------|-------- 7-- 7------ 7-- 7------|
D| 6---------- 8------------------|---- 7------ 7------ 7-- 7------|
A| 7---------- 6---------- 5------|--------------------------------|
E|--------------------------------| 8------------------------------|
http://classicalguitartablature.blogspot.com/
E|--------10--1012----10-- 7------| 3------------------------------|
B|10------ 8--1012---- 8--1010----| 3------ 3------ 3------ 3-- 3--|
G| 8------ 7-- 9--11-- 9-- 7 7----| 4------ 4-- 4---------- 4-- 4--|
D| 8------------------------10----|-------- 5-- 5---------- 5-- 5--|
A| 8------------------ 7-- 8-- 9--|---------------- 5--------------|
E|-------- 7-- 8--10--------------| 3------------------------------|
http://classicalguitartablature.blogspot.com/
E|------10----10--12--10-- 7------| 3------------------------------|
B|------ 7---- 8--12--12--10--10--| 3------ 3------ 3------ 3-- 3--|
G|------ 7---- 7--10--10-- 7-- 7--| 4------ 4-- 4---------- 4-- 4--|
D|----------------------------10--|-------- 5-- 5---------- 5-- 5--|
A|----------------11------ 9------|---------------- 5--------------|
E| 3------ 8-- 6------------------| 3------------------------------|
http://classicalguitartablature.blogspot.com/
E|--------10--1012----10-- 7------|--------------------------------|
B|-------- 8--1012---- 8--1010----| 8------ 8---------- 0-- 1 2----|
G|-------- 7-- 9--11-- 9-- 7 7----| 7------ 7---------- 0-- 2 2----|
D|--------------------------10----| 9------ 9---------- 0-- 2 1----|
A|-------------------- 7-- 8-- 9--|10------------------------------|
E| 3------ 7-- 8--10--------------|--------10------ 3------ 2-- 1--|
http://classicalguitartablature.blogspot.com/
E|------ 7------ 7---- 5----------| 4------------------------------|
B| 3---- 7------ 5---- 5----------| 3------------------------------|
G| 0---- 5------ 4---- 2-------- 4|--------------------------------|
D| 0------------------------------|--------------------------------|
A|-------- 6---- 4---- 3------ 2--|--------------------------------|
E| 0------------------------------|--------------------------------|
http://classicalguitartablature.blogspot.com/

0 ความคิดเห็น:

แสดงความคิดเห็น