To celebrate the anniversary, I am giving you (finally...) : iPhone LickByNeck !!!!!!

Stairway To Heaven

Classic Led Zeppelin's rock tune fingerstyle solo guitar arrangement played in the key of Am.


Stairway To Heaven played in the key of Am.
Classical Guitar Tablature http://classicalguitartablature.blogspot.com/
E|------------ 5-- 7---------- 7--| 8---------- 8-- 2-------- 2----|
B|-------- 5---------- 5----------|---- 5-------------- 3----------|
G|---- 5------------------ 5------|-------- 5------------ 2--------|
D| 7-------------- 6--------------| 5-------------- 4--------------|
A|--------------------------------|--------------------------------|
E|--------------------------------|--------------------------------|
Classical Guitar Tablature http://classicalguitartablature.blogspot.com/
E| 0------------------ 0----------|--------------------------------|
B|---- 1------ 1-------- 1------ 0|---- 1-- 1----------------------|
G|-------- 2---------------- 2-- 0|-- 2---- 2----------------------|
D| 3---------------------------- 0|---- 2-- 2----------------------|
A|--------------------------------|---- 0-- 0---------- 0-- 7-- 7--|
E|------------------------------ 3|--------------------------------|
Classical Guitar Tablature http://classicalguitartablature.blogspot.com/
E|---------------- 7---------- 7--| 8---------- 8-- 2-------- 2----|
B|------------ 5------ 5----------|---- 5-------------- 3----------|
G|-------- 5-------------- 5------|-------- 5------------ 2--------|
D|---- 7---------- 6--------------| 5-------------- 4--------------|
A| 0------------------------------|--------------------------------|
E|--------------------------------|--------------------------------|
Classical Guitar Tablature http://classicalguitartablature.blogspot.com/
E| 0------------------ 0----------|--------------------------------|
B|---- 1------ 1-------- 1------ 0|---- 1-- 1----------------------|
G|-------- 2---------------- 2-- 0|-- 2---- 2----------------------|
D| 3---------------------------- 0|---- 2-- 2----------------------|
A|--------------------------------|---- 0-- 0-------------- 0-- 2--|
E|------------------------------ 3|--------------------------------|
Classical Guitar Tablature http://classicalguitartablature.blogspot.com/
E|------------ 0-- 2-------- 2-- 0|------------ 0------------------|
B|------------------ 3------------|---- 1-------- 0 1--------------|
G|-------- 0------ 2------ 2------|-------- 2---- 2-- 2------------|
D|---- 2---------- 0------------ 3|--------------------------------|
A| 3------------------------------|---------------- 0---- 0---- 2--|
E|--------------------------------|--------------------------------|
Classical Guitar Tablature http://classicalguitartablature.blogspot.com/
E|-------------- 3---------- 3-- 3| 2-- 2-- 2----------------------|
B| 1---------- 1------ 3-------- 3|-- 3---- 3----------------------|
G|---- 0------------------ 0---- 2|---- 2-- 2----------------------|
D|------ 2------------------------| 0------------------------------|
A| 3------------------------------|------------------------ 0-- 2--|
E|-------------- 3----------------|--------------------------------|
Classical Guitar Tablature http://classicalguitartablature.blogspot.com/
E|---------------- 2---------- 2 0|------------ 0------------------|
B|------------ 1------ 3----------|---- 1---------- 0--------------|
G|-------- 0-------------- 2------|-------- 2------ 2-- 2----------|
D|---- 2---------- 0------------ 3|-------------------- 2----------|
A| 3------------------------------|---------------- 0------ 0-- 2--|
E|--------------------------------|--------------------------------|
Classical Guitar Tablature http://classicalguitartablature.blogspot.com/
E|---------------------------- 2--| 0-- 0-- 0-------------- 5-- 7--|
B|------------ 1---------- 3------| 1-- 1-- 1----------------------|
G|-------- 0---------- 2----------| 2-- 2-- 2----------------------|
D|---- 2---------- 0--------------| 3-- 3-- 3----------------------|
A| 3------------------------------|--------------------------------|
E|--------------------------------|--------------------------------|
Classical Guitar Tablature http://classicalguitartablature.blogspot.com/
E| 8------ 7-- 5-- 7------ 5-- 7--| 8------10-- 8-- 7------ 8--10--|
B| 5---- 5-- 5---- 5------ 5-- 5--|10------------------10--10--10--|
G|---- 5---------- 5-- 5-- 5-- 5--|---- 9-------- 9----------------|
D|--------------------------------|--------------------------------|
A|--------------------------------|10------------ 9----------------|
E| 5-------------- 4--------------|--------------------------------|
Classical Guitar Tablature http://classicalguitartablature.blogspot.com/
E|12------10-- 8-------------- 3--|---- 5-- 5-------------- 5-- 7--|
B|10------10--10--12--10-- 8-- 3--|---- 5-- 5----------------------|
G| 9-- 9-- 9-- 9-- 9-- 9-- 9-- 4--|---- 5-- 5----------------------|
D|--------------------------------|--------------------------------|
A| 8------------------------------|--------------------------------|
E|---------------------------- 3--|---- 5-- 5----------------------|
Classical Guitar Tablature http://classicalguitartablature.blogspot.com/
E| 8------ 7-- 5-- 7------ 5-- 7--| 8------10-- 8-- 7------ 8--10--|
B| 5---- 5-- 5---- 5------ 5-- 5--|10------------------10--10--10--|
G|---- 5---------- 5-- 5-- 5-- 5--|---- 9-------- 9----------------|
D|--------------------------------|--------------------------------|
A|--------------------------------|10------------ 9----------------|
E| 5-------------- 4--------------|--------------------------------|
Classical Guitar Tablature http://classicalguitartablature.blogspot.com/
E|12------10-- 8-------------- 3--|---- 5-- 5----------------------|
B|10------10--10--12--10-- 8-- 3--|---- 5-- 5----------------------|
G| 9-- 9-- 9-- 9-- 9-- 9-- 9-- 4--|---- 5-- 5----------------------|
D|--------------------------------|--------------------------------|
A| 8------------------------------|--------------------------------|
E|---------------------------- 3--|---- 5-- 5-------------- 5-- 7--|
Classical Guitar Tablature http://classicalguitartablature.blogspot.com/
E|------ 8----12--10----------1010|-------- 8------ 8------ 5-- 7--|
B|------ 8--------10------10----10|------------12-- 5--------------|
G|---- 9--------------11----------|-- 9---------------- 5----------|
D|--------------------------------|--------------------------------|
A|--------------------------------| 8------------------------------|
E| 8--------------10--------------|---------------- 5------ 5-- 7--|
Classical Guitar Tablature http://classicalguitartablature.blogspot.com/
E| 8--1012--10--10----------------|---- 5-- 5------------ 5---- 7--|
B| 8-- 8 8-- 8--12--13--12---- 8--|---- 8-- 8----------------------|
G| 9-- 9 9-- 9--12--12--12---- 5--|---- 5-- 5----------------------|
D|---------------------------- 7--|--------------------------------|
A|--------------10------------ 5--|--------------------------------|
E| 8------------------------------|---------------------- 5---- 7--|
Classical Guitar Tablature http://classicalguitartablature.blogspot.com/
E| 8------------------------------| 8----10-- 8-- 7-- 5-- 8--10--12|
B| 8------12--10--12--10--10--12--|10----10--10-- 5-- 5------------|
G|---- 9-- 9-- 9--11--11--11--11--| 9-- 9 9-- 9-- 5-- 5------------|
D|----------------12--12--12--12--|--------------------------------|
A|--------------------------------| 8------------------------------|
E| 8--------------10--------------|-------------- 5------ 5-- 7----|
Classical Guitar Tablature http://classicalguitartablature.blogspot.com/
E|------10---- 8------------------|---------------------- 5-- 7-- 8|
B| 8---- 8---- 8--12----10--------| 8--10--10-------------------- 5|
G| 9---- 9---- 9--11----11----12--| 9-- 9-- 9-------------------- 5|
D|----------------12----12----12--|10--10--10----------------------|
A|--------------------------------| 8------------------------------|
E| 8------ 8------10------10------|--------------------------------|
Classical Guitar Tablature http://classicalguitartablature.blogspot.com/
E|--------10-- 8-- 7-- 5-- 5-- 7--| 8------10-- 8-- 7------ 8--10--|
B|-------- 5-- 5-- 5-- 5-- 5-- 5--|10------------------10--10--10--|
G|---- 5-- 5-- 5-- 5-- 5-- 5-- 5--|---- 9-------- 9----------------|
D|--------------------------------|--------------------------------|
A| 0------------------------------|10------------ 9----------------|
E|---------------- 4--------------|--------------------------------|
Classical Guitar Tablature http://classicalguitartablature.blogspot.com/
E|12------10-- 8-------------- 3--|-- 5---- 5----------------------|
B|10------10--10--12--10-- 8-- 3--|-- 5---- 5----------------------|
G| 9-- 9-- 9-- 9-- 9-- 9-- 9-- 4--|-- 5---- 5----------------------|
D|--------------------------------|--------------------------------|
A| 8------------------------------|-------------------- 0-- 7-- 7--|
E|---------------------------- 3--|---- 5-- 5----------------------|
Classical Guitar Tablature http://classicalguitartablature.blogspot.com/
E|---------- 5-- 7-------- 7------|------ 8-------------- 2--------|
B|------------------ 5-- 5-- 5----|---- 5-- 5-------- 3-- 3--------|
G|-------- 5---------- 5------ 5--|-- 5------ 5------ 2---- 2---- 2|
D|---- 7-------- 6----------------| 5---------- 5 4------------ 4--|
A| 0------------------------------|--------------------------------|
E|--------------------------------|--------------------------------|
Classical Guitar Tablature http://classicalguitartablature.blogspot.com/
E|------ 0-------------- 0--------|--------------------------------|
B|---- 1---- 1-------- 1 1------ 0|-- 1---- 1-------------- 3------|
G|-- 2-------- 2---- 2---- 2---- 0|-- 2---- 2-------------- 4------|
D| 3-------------- 3-------- 3-- 0|---- 2-- 2-------------- 5------|
A|--------------------------------|---- 0-- 0----------------------|
E|--------------------------------| 3-------------------- 3--------|
Classical Guitar Tablature http://classicalguitartablature.blogspot.com/
E| 3---- 3 3-- 3---- 0------ 3----|-- 2-- 2---- 2-------- 7-- 8 7--|
B| 1---- 1---- 1---- 1------ 3----|-- 3-- 3---- 3-------- 5-- 5 5--|
G| 0-------- 0-------------- 2----|-- 2-- 2------ 2------ 5---- 5--|
D| 2-------- 2------ 2------ 0----|---------------- 0--------------|
A| 0------------------------------|--------------------------------|
E|--------------------------------|--------------------------------|
Classical Guitar Tablature http://classicalguitartablature.blogspot.com/
E|-- 5---------------------- 7----|---- 5---- 3------ 5------------|
B|-- 5-- 8---- 8------ 5---- 8----|---- 7---- 5------ 7------------|
G|-- 5-- 5---- 5------ 5---- 7----|---- 7---- 5------ 7------------|
D|------ 5---- 5------ 5---- 0----| 0-------- 0-- 0----------------|
A|---------------------------- 0--|------------ 0-------------- 0--|
E| 5-------------- 5--------------|--------------------------------|
Classical Guitar Tablature http://classicalguitartablature.blogspot.com/
E| 3---- 3 3-- 3---- 0------ 3----|-- 2-- 2---- 2-------- 7-- 8 7--|
B| 1---- 1---- 1---- 1------ 3----|-- 3-- 3---- 3-------- 5-- 5 5--|
G| 0-------- 0-------------- 2----|-- 2-- 2------ 2------ 5---- 5--|
D| 2-------- 2------ 2------ 0----|---------------- 0--------------|
A| 0------------------------------|--------------------------------|
E|--------------------------------|--------------------------------|
Classical Guitar Tablature http://classicalguitartablature.blogspot.com/
E|-- 5---------------------- 7----|---- 5---- 3------ 5------------|
B|-- 5-- 8---- 8------ 5---- 8----|---- 7---- 5------ 7------------|
G|-- 5-- 5---- 5------ 5---- 7----|---- 7---- 5------ 7------------|
D|------ 5---- 5------ 5---- 0----| 0-------- 0-- 0----------------|
A|---------------------------- 0--|------------ 0------------------|
E| 5-------------- 5--------------|---------------------- 5-- 7-- 8|
Classical Guitar Tablature http://classicalguitartablature.blogspot.com/
E|--12--10-- 8--10-- 8---------- 5|-- 8------ 5-- 5----------------|
B|-- 8-- 8-- 8-- 8-- 8--10-- 8-- 5|-- 5---- 8 5 8-- 8 5------------|
G|-- 9-- 9-- 9-- 7-- 7-- 7-- 7-- 5|-- 5---- 5 5 5 5 5 5------------|
D|---------------------- 7--------|------ 5-------- 5 5------------|
A|--------------------------------|--------------------------------|
E|-------------- 7-------------- 5|---------------------- 5-- 7-- 8|
Classical Guitar Tablature http://classicalguitartablature.blogspot.com/
E|-- 8-- 8--12--10---- 8-------- 8|---- 5-- 5----------------------|
B|-- 8-- 8-- 8-- 8---- 8--10-- 810|---- 5-- 5------ 5--------------|
G|-- 9---- 9 9-- 7---- 7-- 7---- 9|---- 5-- 5----------------------|
D|--------------------------------|---------------- 5 5------------|
A|------------------------------ 8|--------------------------------|
E|---------------- 7--------------|---- 5---------------- 5-- 7-- 8|
Classical Guitar Tablature http://classicalguitartablature.blogspot.com/
E|--12--10-- 8--10-- 8---------- 5|-- 8------ 5-- 5----------------|
B|-- 8-- 8-- 8-- 8-- 8--10-- 8-- 5|-- 5---- 8 5 8-- 8 5------------|
G|-- 9-- 9-- 9-- 7-- 7-- 7-- 7-- 5|-- 5---- 5 5 5 5 5 5------------|
D|---------------------- 7--------|------ 5-------- 5 5------------|
A|--------------------------------|--------------------------------|
E|-------------- 7-------------- 5|---------------------- 5-- 7-- 8|
Classical Guitar Tablature http://classicalguitartablature.blogspot.com/
E|-- 8-- 8--12--10---- 8-------- 8|---- 5-- 5----------------------|
B|-- 8-- 8-- 8-- 8---- 8--10-- 810|---- 5-- 5------ 5--------------|
G|-- 9---- 9 9-- 7---- 7-- 7---- 9|---- 5-- 5----------------------|
D|--------------------------------|---------------- 5 5----------10|
A|------------------------------ 8|--------------------------------|
E|---------------- 7--------------|---- 5---------------- 5-- 7-- 8|
Classical Guitar Tablature http://classicalguitartablature.blogspot.com/
E|------------------------------ 2|-------------------------- 0 2 3|
B|------ 8-------------- 8------ 3|-------------------------- 3 3 3|
G|-- 9-------------- 7---------- 2|-------------------------- 2 2 2|
D|----------10-- 9---------- 9-- 0|-------------------------- 0 0 0|
A|--------------------------------|--------------------------------|
E|-------------- 7----------------|--------------------------------|
Classical Guitar Tablature http://classicalguitartablature.blogspot.com/
E|---------- 0 2 3---------- 0 2 3|------ 3------ 2----------------|
B|---------- 3 3 3---------- 3 3 3|------ 3------ 3---------- 1----|
G|---------- 2 2 2---------- 2 2 2|------ 2------ 2---------- 0----|
D|---------- 0 0-- 0-------- 0 0 0|------ 0------ 0----------------|
A|--------------------------------|---------------------------- 3--|
E|--------------------------------|--------------------------------|
Classical Guitar Tablature http://classicalguitartablature.blogspot.com/
E|------ 2---- 2 2-- 0------------|------ 2---- 2 2-- 0------ 0 2 3|
B|------ 1---- 1 1-- 1------ 1----|------ 1---- 1------------ 3 3 3|
G|------ 0---------- 0------ 0----|------ 0------------------ 2 2 2|
D|------------ 0------------------|-------------- 0---------- 0 0 0|
A|-------------------------- 3----|--------------------------------|
E|--------------------------------|--------------------------------|
Classical Guitar Tablature http://classicalguitartablature.blogspot.com/
E|---------- 0 2 3---------- 0 2 3|------ 3------ 2----------------|
B|---------- 3 3 3---------- 3 3 3|------ 3------ 3---------- 1----|
G|---------- 2 2 2---------- 2 2 2|------ 2------ 2---------- 0----|
D|---------- 0 0-- 0-------- 0 0 0|------ 0------ 0----------------|
A|--------------------------------|-------------------------- 3----|
E|--------------------------------|--------------------------------|
Classical Guitar Tablature http://classicalguitartablature.blogspot.com/
E|------ 2-- 2 2 2-- 0------------|-------------- 2----------------|
B|------ 1---------- 1-- 3--------|---------- 3------ 3-- 0--------|
G|------ 0-------------- 0-- 0----|------ 0---------------- 2 0----|
D|------------ 0------------------|-- 0----------------------------|
A|------------------------------ 2|--------------------------------|
E|--------------------------------|------------------------------ 5|
Classical Guitar Tablature http://classicalguitartablature.blogspot.com/
E|-- 5---- 5 5---------------- 5--|-------- 5 5-- 5-- 5-- 5---- 7--|
B|-- 5---- 5 5--13----12--10-- 5--|-- 5---- 5---- 5-- 5-- 5---- 8--|
G|-- 5---- 5 5--12----12--1212 5--|-------------- 5-- 5-------- 7--|
D|--------------12----12----12----|---- 7------------ 7-- 7-- 9----|
A|----------------10--------------| 8------------------------10----|
E|--------------------------------|--------------------------------|
Classical Guitar Tablature http://classicalguitartablature.blogspot.com/
E|---- 5 5-- 5---------------- 7 8|--------------------------------|
B|-- 5-- 5-- 513----12--1012--10--|--10--10------10--10--10----12--|
G|---- 5 5-- 512----12--1212-- 9--|-- 9-- 9------ 9-- 9-- 9----12--|
D|------------12----12--1212------|----------------------10----12--|
A|----------------10--------------| 8---------- 8------ 8-- 8--10--|
E| 5------------------------------|------------------------------ 5|
Classical Guitar Tablature http://classicalguitartablature.blogspot.com/
E|-- 5-- 5-- 512----10-------- 7 8|--------------------------------|
B|-- 5-- 5-- 512----12--13--1210--|--10--10------10--10--10----12--|
G|-- 5-- 5-- 512----12--12---- 9--|-- 9-- 9------ 9-- 9-- 9----12--|
D|--------------------------------|----------------------10----12--|
A|--------------10----------------| 8---------- 8------ 8-- 8--10--|
E|--------------------------------|------------------------------ 5|
Classical Guitar Tablature http://classicalguitartablature.blogspot.com/
E|-- 5-- 5-- 512----10----10--10--|--12----------------------------|
B|-- 5-- 5-- 512----12--13----10--|--10--------10----10------------|
G|-- 5-- 5-- 512----12----12-- 9--|-- 9-------- 9---- 9----10--12--|
D|--------------------------------|------------------------10--12--|
A|--------------10-------------- 8|-------- 8---- 8---- 8-- 8--10--|
E|--------------------------------|--------------------------------|
Classical Guitar Tablature http://classicalguitartablature.blogspot.com/
E|---- 5-- 5 512----10----10--10--|--12------------------------ 8--|
B|---- 5-- 5 512----12--13----10--|--10--------10------10----------|
G|---- 5-- 5 512----12----12-- 9--|-- 9---- 9------ 9--------------|
D|--------------------------------|--------------------------------|
A|--------------10-------------- 8|--------------------------------|
E| 5------------------------------|--------------------------------|
Classical Guitar Tablature http://classicalguitartablature.blogspot.com/
E|--------10----------12------10--|------ 8------ 7----------------|
B|--------------------10------ 8--|------ 8------10----------13----|
G|--------------------12------ 7--|------ 7-------- 9--------10----|
D|--------------------------------|--------------------------10----|
A|------------------12------------|--------------------------------|
E|---------------------------- 6--|---- 7-------- 8--------10------|
Classical Guitar Tablature http://classicalguitartablature.blogspot.com/
E|--------------------------------|------------ 8---- 3-- 5--------|
B|--12------10---------- 8--------|------------10---- 3-- 5--------|
G|--11------ 7---------- 7--------|------------ 9---- 4-- 5--------|
D|--10------ 9-------- 7----------|--------------------------------|
A|---------- 7-------- 8----------|------------ 9------------------|
E|11------------------------------|------------------ 3-- 5--------|

0 ความคิดเห็น:

แสดงความคิดเห็น