To celebrate the anniversary, I am giving you (finally...) : iPhone LickByNeck !!!!!!

Tea for two

Crooner's favorite fingerstyle chord melody guitar arrangement played in the key of G
http://classicalguitartablature.blogspot.com/

http://classicalguitartablature.blogspot.com/
Tea For Two played in the key of G.
http://classicalguitartablature.blogspot.com/
E|--------------------------------|------------------------------ 2|
B| 8------ 5------ 7-- 5------ 8--|---- 5------ 7---------------- 3|
G| 5------ 5------ 5-- 5------ 5--|---- 5---------------- 7------ 4|
D| 5------ 5------ 7-- 7------ 5--|---- 5--------------------------|
A|---------------- 5--------------|------------ 5------------------|
E| 5-------------------------- 5--|--------------------------------|
http://classicalguitartablature.blogspot.com/
E|---------------------------- 2--|------------ 0-------- 0--------|
B|-------- 3---- 5---- 3------ 3--|---- 3------ 0-------- 0------ 8|
G|-------- 4---- 4---- 4------ 2--|---- 2------ 1------ 1-------- 5|
D|-------------- 5---- 5----------|------------------------------ 5|
A|---------------- 3---------- 2--|--------------------------------|
E| 3------------------------------|------------ 0---------------- 5|
http://classicalguitartablature.blogspot.com/
E|--------------------------------|------------------------------ 7|
B|------ 5------ 7---- 5------ 8--|---- 5------ 7---------------- 7|
G|------ 5------ 5------ 5---- 5--|---- 5------ 5-------- 7------ 7|
D|------ 5------ 7------------ 5--|---- 5------ 7------------------|
A|-------------- 5----------------|------------ 5----------------10|
E|---------------------------- 5--|--------------------------------|
http://classicalguitartablature.blogspot.com/
E|---- 7--------------------------|------------------------------ 7|
B|---- 7-------- 8---- 8-------- 8|---- 8-------- 3------ 5------ 5|
G|---- 7-------- 7---- 7-------- 7|---- 7-------- 4-------- 5---- 4|
D|-------------- 9---- 9-------- 5|-------------- 4-------- 4------|
A|------ 9------ 7------ 5--------|--------------------------------|
E|------------------------------ 7|------ 5-------- 3------ 4------|
http://classicalguitartablature.blogspot.com/
E|------ 4------ 6---- 4------ 7--|---- 4------ 6------------------|
B|------ 5------ 5---- 5------ 5--|---- 5------ 5---------- 7------|
G|------ 4------ 6---- 6------ 4--|---- 4------ 6------ 6----------|
D|-------------- 4----------------|------------ 4------------------|
A| 4-------------------------- 4--|--------------------------------|
E|--------------------------------|------------------------------ 7|
http://classicalguitartablature.blogspot.com/
E| 6-------------------------- 6--|---------- 4------------------ 7|
B| 7------ 7---- 9---- 9------ 7--|---- 7------ 4-------- 7------ 5|
G| 8------------ 8---- 8------ 6--|---- 6------ 5---------------- 4|
D|-------------- 9---- 9----------|---- 8------------ 4------------|
A|---------------- 7---------- 6--|------------------------------ 4|
E|--------------------------------|------------ 4------------------|
http://classicalguitartablature.blogspot.com/
E|------ 4------ 6---- 4------ 7--|---- 4------ 6------------------|
B|------ 5------ 5---- 5------ 5--|---- 5------ 5-------- 7--------|
G|------ 4------ 6---- 6------ 4--|---- 4------ 6------------------|
D|-------------- 4----------------|------------ 4------------------|
A|---------------------------- 4--|--------------------------------|
E|--------------------------------|--------------------------------|
http://classicalguitartablature.blogspot.com/
E|11--11--------------------------|----10----------10--10----------|
B|11--11--------------11----------|----10----------10--10-------- 8|
G|11--11--------------11----------|----11----------11--11-------- 5|
D| 9------------------ 9----------|------------------------------ 5|
A|-------- 9----------------------|--------------------------------|
E|----------------11------ 7------|10------------------------------|
http://classicalguitartablature.blogspot.com/
E|--------------------------------|------------------------------ 2|
B|---- 5------ 7------ 7 5------ 8|---- 5------ 7---------- 3------|
G|---- 5------ 5------ 5 5------ 5|---- 5------ 5---------- 5------|
D|---- 5------ 7------ 7-- 7---- 5|---- 5------ 7---------- 4------|
A|------------ 5------------------|------------ 5------------------|
E| 5---------------------------- 5|------------------------ 4------|
http://classicalguitartablature.blogspot.com/
E|------ 2-------------------- 2--|-------------- 0----------------|
B| 3---- 3-------- 5-- 5------ 3--|---- 3------ 0-------- 3------ 8|
G| 4---- 4-------- 4-- 4------ 2--|---- 2------ 1---- 1---------- 5|
D|---------------- 5-- 5----------|---- 4-------------- 0----------|
A|---------------- 3-- 3------ 2--|--------------------------------|
E| 3------------------------------|------------ 0------------------|
http://classicalguitartablature.blogspot.com/
E|--------------------------------|--------------------------------|
B|---- 5------ 7-------- 5------ 8|---- 5------ 7------------------|
G|---- 5------ 5------ 5 5------ 5|---- 5------ 5---------- 7------|
D| 5-- 5------ 7------ 7-- 5---- 5|---- 5------ 7---------- 7---- 7|
A|------------ 5------------------|------------ 5------------------|
E| 5------ 5-------------------- 5|------------------------ 8------|
http://classicalguitartablature.blogspot.com/
E|10----------10--10--10----------|--------------------------------|
B|10----------10--10--10------ 8--|---- 5------ 3------------------|
G|10----------10--10--10------ 7--|---- 7------ 4---------- 7------|
D|---------------------------- 6--|---- 6------ 3---------- 6------|
A|---------------------------- 7--|--------------------------------|
E| 7---------- 7-- 7---- 7--------|---- 7------ 4---------- 7------|
http://classicalguitartablature.blogspot.com/
E|----12----------10--10------ 8--|---- 8------ 7-------- 7--------|
B|----10---------- 9-- 9----------|---- 8------ 6-------- 6--------|
G|----12----------10--10------ 9--|---- 9------ 7------ 7 7--------|
D|---------------- 9---- 9---- 7--|---- 7------ 6------------------|
A|12------------------------------|--------------------------------|
E|--------------------------------|------------------------------ 8|
http://classicalguitartablature.blogspot.com/
E|----10---------- 8-- 8-------- 7|---- 7--------------------------|
B|---- 8---------- 8-- 8-------- 8|---- 8------10----------10------|
G|---- 9---------- 9-- 9-------- 8|------------ 8-------- 8--------|
D|--------------------------------|------------ 8------ 8 8--------|
A|----------------10--10------ 8--|------------ 8------------------|
E|--------------------------------|------------------------------ 7|
http://classicalguitartablature.blogspot.com/
E|--------------------------------|-------------------- 7----------|
B|---- 8-------- 7---- 5------ 8--|---- 5------ 7------ 7-------- 8|
G|------ 9------ 6---- 6------ 5--|---- 5------ 5------ 7-------- 8|
D|-------------- 5---- 5------ 5--|---- 5------ 7---------------- 7|
A|--------------------------------|------------ 5---------------- 8|
E|-------------- 6------------ 5--|--------------------------------|
http://classicalguitartablature.blogspot.com/
E|------------------------------ 3|-------------------- 7----------|
B|------ 5-------- 7-- 5-------- 5|------ 5------ 7---- 7----------|
G|------ 7-------- 5-- 4-------- 4|------ 2------ 7---- 5-------- 4|
D|-------- 5------ 7-- 5----------|-------- 2---- 6-------------- 2|
A|-------- 7------ 6-- 5-------- 4|-------- 3----------------------|
E|--------------------------------|-------------- 6---- 4------ 3--|
http://classicalguitartablature.blogspot.com/
E| 3------------------------------|--------------------------------|
B| 2------------------------------|--------------------------------|
G|--------------------------------|--------------------------------|
D|--------------------------------|--------------------------------|
A|--------------------------------|--------------------------------|
E|-------------- 3---- 3------ 3--|--------------------------------|
http://classicalguitartablature.blogspot.com/

0 ความคิดเห็น:

แสดงความคิดเห็น