To celebrate the anniversary, I am giving you (finally...) : iPhone LickByNeck !!!!!!

千千闋歌 - Thousands Of Song (EASY)

Classic Chinese (Cantonese) tune fingerstyle solo guitar arrangement played in the key of G.
http://classicalguitartablature.blogspot.com/
You need to install the Flash plugin - http://www.webestools.com/

http://classicalguitartablature.blogspot.com/
Qian Qian Que Ge - BASIC Arrangement played in the key of G.
http://classicalguitartablature.blogspot.com/
E| 5-- 5-- 5------ 5 3-- 0---- 7 7| 8-- 7-- 5------ 5 7-- 7-- 7 7 5|
B| 5-- 5-- 5-- 8-- 0---- 0-- 0----| 5------ 5-- 8-- 0 0------ 0-- 5|
G| 5-- 5-- 5-- 5-- 0 0---- 0------| 5-- 5-- 5-- 5-- 0-- 0-------- 5|
D|------------ 5------------------|------------ 5------------------|
A| 0------------------------------| 0------------------------------|
E|---------------- 0--------------|---------------- 0--------------|
http://classicalguitartablature.blogspot.com/
E|-- 5-- 5------ 5-- 3-------- 3--| 3------------------------------|
B|-- 5------ 8-- 5-- 5---- 5------| 3------ 3------ 5--------------|
G|-- 5 5---------- 4------ 5 5-- 5| 0------ 0------ 5------ 5------|
D|-------- 5-- 5------------------|---- 0---------- 5-- 5------ 5--|
A| 0------------ 3-------- 5------|---------- 3-- 4 5--------------|
E|--------------------------------| 3------------------------------|
http://classicalguitartablature.blogspot.com/
E|-------------------------- 0 3 2|-- 2-- 2-------------- 0--------|
B|------------ 0------ 0-- 3---- 0|-- 0------ 3 0------ 0-- 0------|
G| 0---- 0-- 2 0---- 0---------- 2|-- 2-- 2---- 2---- 2------ 2----|
D| 0-- 0------------ 0------------|---------- 0---- 0---------- 0--|
A|--------------------------------| 2------------------------------|
E| 3------------------------------|--------------------------------|
http://classicalguitartablature.blogspot.com/
E|-------------------------- 0 3 7| 5-- 5-- 5----------------------|
B|------------ 0 1------ 1 0------| 7-- 7-- 7-- 7-------- 7--------|
G| 2------ 2---------- 2---- 0----| 7-- 7-- 7---- 7---- 7----------|
D| 2-- 2-- 2-------- 2------ 0----|------------------ 7-------- 7--|
A| 0------------------------------| 5------------------------------|
E|--------------------------------|--------------------------------|
http://classicalguitartablature.blogspot.com/
E|-------------------------- 0 3 2|-- 2-- 2-------------- 0--------|
B|------------ 0------ 0-- 3---- 0|-- 0------ 3 0------ 0-- 0------|
G| 0---- 0-- 2 0---- 0---------- 2|-- 2-- 2---- 2---- 2------ 2----|
D| 0-- 0------------ 0------------|---------- 0---- 0---------- 0--|
A|--------------------------------| 2------------------------------|
E| 3------------------------------|--------------------------------|
http://classicalguitartablature.blogspot.com/
E|-------------------------- 0 3 7| 5-- 5-- 5-------------------- 0|
B|------------ 0 1------ 1 0------| 7-- 7-- 7-- 7-------- 7------ 1|
G| 2------ 2---------- 2---- 0----| 7-- 7-- 7---- 7---- 7----------|
D| 2-- 2-- 2-------- 2------ 0----|------------------ 7-------- 7--|
A| 0------------------------------| 5------------------------------|
E|--------------------------------|--------------------------------|
http://classicalguitartablature.blogspot.com/
E|-- 0-- 0------ 0 2---- 2--------|---------------------- 7--------|
B|-- 1 3 1---- 3-- 3-- 3 3---- 3--|--10--10---- 7-- 810-- 8---- 8--|
G| 0 0 0 0-------- 2-- 2 2-- 2----|-- 7---- 7-- 7-- 7 7---------- 7|
D|---- 2---- 2--------------------|-- 7 7---- 7---- 9 9---- 9------|
A| 3-------------- 3--------------|---------------- 7--------------|
E|--------------------------------| 7------------------------------|
http://classicalguitartablature.blogspot.com/
E|---- 5 5 5------ 7--------------| 0-------- 0---------------- 3 5|
B|---- 5-- 5 8---- 7---- 7 5------| 0------ 0------ 7 7---- 3 5----|
G|-------- 5 5---- 7-------- 7----| 0---- 0-------- 7 7------------|
D|-- 5------ 5--------------------|---- 0------ 0---- 7------------|
A| 0-------------- 5--------------|---------------- 5 5------------|
E|--------------------------------| 0------------------------------|
http://classicalguitartablature.blogspot.com/
E| 7------ 7-- 7-------- 7--------| 3-- 0 0-------------------- 3 5|
B|10------1010--------------10 810| 0-- 0 0------ 0------ 0 3 5----|
G| 7------ 7-- 7------ 7----------| 0-- 0 0---- 0------ 0----------|
D|---- 9------------ 9-- 9--------|---------- 0------ 0------------|
A|10------------10----------------|--------------------------------|
E|--------------------------------| 0-------------- 0--------------|
http://classicalguitartablature.blogspot.com/
E| 7------ 7---- 7------ 710--12--|10-- 7 7---------------- 7-- 7--|
B|------------10------10----------| 7-- 7 7-------------- 7--------|
G| 7---- 7------------ 7----------| 7-- 7------ 7------ 7----------|
D|---- 9------------ 9------------|---------- 7------ 7------ 7-- 7|
A|10--------------10--------------|--------------------------------|
E|--------------------------------| 7-------------- 7--------------|
http://classicalguitartablature.blogspot.com/
E| 5-- 5-- 5------ 5 3-- 0---- 7 7| 8-- 7-- 5------ 5 7-- 7-- 7 7 5|
B| 5-- 5-- 5-- 8-- 0---- 0-- 0----| 5------ 5-- 8-- 0 0------ 0-- 5|
G| 5-- 5-- 5-- 5-- 0 0---- 0------| 5-- 5-- 5-- 5-- 0-- 0-------- 5|
D|------------ 5------------------|------------ 5------------------|
A| 0------------------------------| 0------------------------------|
E|---------------- 0--------------|---------------- 0--------------|
http://classicalguitartablature.blogspot.com/
E|-- 5-- 5------ 5-- 3-------- 3--| 3-------------------------- 3 5|
B|-- 5------ 8-- 5-- 5---- 5------| 3------ 3-------------- 3 5----|
G|-- 5 5---------- 4------ 5 5-- 5| 0---- 0-------- 5 5------------|
D|-------- 5-- 5------------------|---- 0------ 0-- 5 5------------|
A| 0------------ 3-------- 5------|---------------- 5 5------------|
E|--------------------------------| 3------------------------------|
http://classicalguitartablature.blogspot.com/
E| 7------ 7-- 7-------- 7--------| 3-- 0 0-------------------- 3 5|
B|10------1010--------------10 810| 0-- 0 0------ 0------ 0 3 5----|
G| 7------ 7-- 7------ 7----------| 0-- 0 0---- 0------ 0----------|
D|---- 9------------ 9-- 9--------|---------- 0------ 0------------|
A|10------------10----------------|--------------------------------|
E|--------------------------------| 0-------------- 0--------------|
http://classicalguitartablature.blogspot.com/
E| 7------ 7---- 7------ 710--12--|10-- 7 7---------------- 7-- 7--|
B|------------10------10----------| 7-- 7 7-------------- 7--------|
G| 7---- 7------------ 7----------| 7-- 7------ 7------ 7----------|
D|---- 9------------ 9------------|---------- 7------ 7------ 7-- 7|
A|10--------------10--------------|--------------------------------|
E|--------------------------------| 7-------------- 7--------------|
http://classicalguitartablature.blogspot.com/
E| 5-- 5-- 5------ 5 3-- 0---- 7 7| 8-- 7-- 5------ 5 7-- 7-- 7 7 5|
B| 5-- 5-- 5-- 8-- 0---- 0-- 0----| 5------ 5-- 8-- 0 0------ 0-- 5|
G| 5-- 5-- 5-- 5-- 0 0---- 0------| 5-- 5-- 5-- 5-- 0-- 0-------- 5|
D|------------ 5------------------|------------ 5------------------|
A| 0------------------------------| 0------------------------------|
E|---------------- 0--------------|---------------- 0--------------|
http://classicalguitartablature.blogspot.com/
E|-- 5-- 5--------------------10--|10------------------------------|
B|-- 5------ 8--10---- 8--12------| 8---------- 8------------------|
G|-- 5 5-------- 9--------11------| 7------ 7------ 7-------- 5----|
D|-------- 5-- 5----10----1212----|------ 7-------------- 7--------|
A| 0------------------------------|--------------------------------|
E|-------------- 8--------10------| 8-------------- 7-------- 5----|
http://classicalguitartablature.blogspot.com/
E|--------------------------------|--------------------------------|
B|------ 3------------------------|--------------------------------|
G|------ 0------------------------|--------------------------------|
D| 5---- 0------------------------|--------------------------------|
A|--------------------------------|--------------------------------|
E|---- 3--------------------------|--------------------------------|
http://classicalguitartablature.blogspot.com/

0 ความคิดเห็น:

แสดงความคิดเห็น