To celebrate the anniversary, I am giving you (finally...) : iPhone LickByNeck !!!!!!

Tico Tico

Classic samba fingerstyle solo guitar arrangement played in the key of Am. Fun!
http://classicalguitartablature.blogspot.com/

http://classicalguitartablature.blogspot.com/
Tico Tico played in the key of Am.
http://classicalguitartablature.blogspot.com/
E|--------------------------------|------------ 5------------------|
B|------------------ 5-- 4---- 5--| 6-- 5------ 5------ 5-- 4-- 5--|
G|--------------------------------| 5-- 5------ 5------------------|
D|--------------------------------| 5------------------------------|
A|--------------------------------|--------------------------------|
E|--------------------------------| 5-- 5------ 5-- 0--------------|
http://classicalguitartablature.blogspot.com/
E|------------ 4------------------|---- 0--10-- 7-- 4--------------|
B| 6-- 5------ 5------ 5-- 4-- 5--| 6------ 9-- 9-- 5-- 5-- 4-- 3--|
G| 7-- 7------ 4------ 4-- 4-- 4--| 7------ 7-- 7-- 4--------------|
D| 6-- 6------ 6------ 6-- 6-- 6--| 6------------------------------|
A| 7---------- 7------------------|--------------------------------|
E|---------------- 7--------------| 0-------------- 7--------------|
http://classicalguitartablature.blogspot.com/
E|--------------------------------|------------10------------------|
B| 1-- 1--------------10-- 9-- 8--|----10------10--------10--------|
G| 2-- 2------ 2------------------|10--------------------------10--|
D| 2-- 2------ 2------------------|--------------------10----------|
A| 0---------- 0------------------|----------------12--------------|
E|---------------- 0--------------|10----------10------------------|
http://classicalguitartablature.blogspot.com/
E|---- 5------ 8---- 8-- 7-- 5----| 7------------------ 8-- 7------|
B| 5-- 5------ 5---- 5-- 5-- 5-- 7|------------ 7--10-- 7------10--|
G| 5-- 5------ 5---- 5-- 5-- 5----|-------- 8------ 8-- 8----------|
D| 5---------- 5------------------|---- 9---------- 7--------------|
A|--------------------------------|---------------- 9--------------|
E| 5---------------------------- 7|--------------------------------|
http://classicalguitartablature.blogspot.com/
E| 4------ 4----------------------|------------ 5------------------|
B| 5------ 5---------- 5-- 4-- 5--| 6-- 5------ 5------ 5-- 4-- 5--|
G| 4---------- 4------ 4-- 4-- 4--| 5-- 5------ 5------------------|
D|-------------------- 6-- 6-- 6--| 5------------------------------|
A| 7------------------------------|--------------------------------|
E|---------------- 7--------------| 5-- 5------ 5-- 0--------------|
http://classicalguitartablature.blogspot.com/
E|------------ 4------------------|---- 0--10-- 7-- 4--------------|
B| 6-- 5------ 5------ 5-- 4-- 5--| 6------ 9-- 9-- 5-- 5-- 4-- 3--|
G| 7-- 7------ 4------ 4-- 4-- 4--| 7------ 7-- 7-- 4--------------|
D| 6-- 6------ 6------ 6-- 6-- 6--| 6------------------------------|
A| 7---------- 7------------------|--------------------------------|
E|---------------- 7--------------| 0-------------- 7--------------|
http://classicalguitartablature.blogspot.com/
E|--------------------------------|------------10------------------|
B| 1-- 1--------------10-- 9-- 8--|----10------10--------10--------|
G| 2-- 2------ 2------------------|10--------------------------10--|
D| 2-- 2------ 2------------------|--------------------10----------|
A| 0---------- 0------------------|----------------12--------------|
E|---------------- 0--------------|10----------10------------------|
http://classicalguitartablature.blogspot.com/
E|---- 5------ 8---- 8-- 7-- 5----| 7---------- 7--10--10-- 8-- 7--|
B| 5-- 5------ 5---- 5-- 5-- 5----|-------- 9------ 9 9---- 9-- 9--|
G| 5-- 5------ 5---- 5-- 5-- 5----|---- 9---------- 7-- 7------ 7--|
D| 5---------- 5------------------|--------------------------------|
A|--------------------------------|--------------------------------|
E| 5------------------------------| 7-------------- 0--------------|
http://classicalguitartablature.blogspot.com/
E| 5-- 5-------------- 7-- 6-- 5--| 3---------- 3---------- 3-- 4--|
B| 5-- 5------ 3------------------|-------- 5---------- 5----------|
G| 5-- 5------ 4------------------|---- 5---------- 5--------------|
D|------------ 3------------------|--------------------------------|
A|--------------------------------| 3------------------------------|
E| 5-- 5------ 3------------------|---------------- 3--------------|
http://classicalguitartablature.blogspot.com/
E| 5------------------ 7-- 6-- 5--| 5-------------------------- 3--|
B| 6------ 6---------------- 5----|-------- 3-- 6------ 3-- 6------|
G| 5------ 5----------------------|---- 4---------- 4--------------|
D|------------ 7------------------|---------------- 3--------------|
A| 5------------------------------|---------------- 5--------------|
E|---------------- 5--------------| 3------------------------------|
http://classicalguitartablature.blogspot.com/
E| 5------------------ 8-- 8-- 8--| 8---- 7---- 7-- 5-- 5-- 5------|
B| 5------ 5---------- 5-- 5-- 5--| 5---- 5---- 5------ 5-- 5------|
G| 4------ 4---------- 5-- 5-- 5--| 5------ 5-- 5------ 5-- 5-- 5--|
D|---------------- 5--------------|---------------- 5--------------|
A| 3------------------------------|--------------------------------|
E|--------------------------------| 8------------------------------|
http://classicalguitartablature.blogspot.com/
E| 5------------------ 7-- 7-- 7--| 7------ 5-- 5------ 3-- 3 3-- 3|
B| 6------ 8-- 8------ 6-- 6-- 6--| 3------ 3-- 3------ 3-- 3 3-- 5|
G| 5------ 5-- 5------ 5-- 5-- 5--| 4------ 4-- 4------ 4-- 4 4-- 4|
D|-------- 7-- 7------------------|--------------------------------|
A| 5------------------------------|---------------- 5------------ 3|
E|---------------- 5--------------| 3------------------------------|
http://classicalguitartablature.blogspot.com/
E|-------------------- 7 6-- 5----| 3---------- 3---------- 3-- 4--|
B|------ 5-- 5------ 5-- 5-- 5----|-------- 5---------- 5----------|
G|------ 4-- 4-------- 5-- 5 5----|---- 5---------- 5--------------|
D|------ 5-- 5--------------------|--------------------------------|
A|-- 3----------------------------| 3------------------------------|
E|---------------- 3--------------|---------------- 3--------------|
http://classicalguitartablature.blogspot.com/
E| 5------------------ 7-- 6-- 5--| 5-------------------------- 3--|
B| 6------ 6---------------- 5----|-------- 3-- 6------ 3-- 6------|
G| 5------ 5----------------------|---- 4---------- 4--------------|
D|------------ 7------------------|---------------- 3--------------|
A| 5------------------------------|---------------- 5--------------|
E|---------------- 5--------------| 3------------------------------|
http://classicalguitartablature.blogspot.com/
E| 5------------------ 8 7---- 6--| 5-- 4 5-- 7-- 8---- 7------1012|
B| 5------ 5----------------------| 5------------10----10--10------|
G| 4------ 4----------------------| 5------------ 9---- 9-- 9-- 9--|
D|---------------- 5--------------|--------------------------------|
A| 3------------------------------| 8------------ 9----------------|
E|--------------------------------|--------------------------------|
http://classicalguitartablature.blogspot.com/
E|------------12--15--13--12------|10-------------- 3--------------|
B|--------13------13----------13--|10--13--12--10-- 3-- 6-- 5-- 3--|
G|----12----------12--------------|10------11--11-- 4-- 4-- 4-- 4--|
D|--------------------------------|--------10--10---------- 3-- 3--|
A|10-------------- 0--------------|--------11-------------- 4------|
E|--------------------------------|10-------------- 3-- 2----------|
http://classicalguitartablature.blogspot.com/
E| 0------ 0----------------------| 5---------- 4------------------|
B| 1------ 1------------------ 5--| 5---------- 5-------------- 5 7|
G| 0---------------------- 6------|-------- 6------------ 6------ 6|
D|-------------------- 7----------|---- 7-------------- 7----------|
A| 3------------------------------|--------------------------------|
E|---------------- 0--------------| 5-------------- 0------------ 5|
http://classicalguitartablature.blogspot.com/
E|--------------------------------|--------------------------------|
B|---------- 5-------------- 5-- 7|---------- 5-------------- 5-- 7|
G|------ 6-- 6---------- 6--------|------ 6---------------- 6------|
D|---- 7------------ 7------------|-- 7---------------- 7----------|
A|--------------------------------|--------------------------------|
E|---------------- 0------------ 5|---------------- 0--------------|
http://classicalguitartablature.blogspot.com/
E|--------------------------------|--------------------------------|
B|------------ 5-------------- 7--|10---------- 9-------------- 7--|
G|------ 7---- 7---------- 7------|-------- 7-------------- 7------|
D|---- 9------ 6------ 9----------|---- 9-------------- 9----------|
A|--------------------------------|---------------- 7--------------|
E| 7-------------- 0--------------| 7------------------------------|
http://classicalguitartablature.blogspot.com/
E|--------------------------------|--------------------------------|
B| 7---------- 5-------------- 3--| 7---------- 5-------------- 3--|
G|-------- 7-- 7---------- 4------|-------- 7-- 7---------- 4------|
D|-- 9-------- 6------ 6----------|---- 9------ 6------ 6----------|
A|--------------------------------|--------------------------------|
E| 7-------------- 0--------------| 7-------------- 0--------------|
http://classicalguitartablature.blogspot.com/
E|--------------------------------| 5---------- 4------------------|
B| 7---------- 5-------------- 5--| 5---------- 5-------------- 5--|
G|-------- 6-------------- 6------|-------- 6------------ 6--------|
D|---- 7-------------- 7----------|---- 7-------------- 7----------|
A|--------------------------------|--------------------------------|
E| 5-------------- 0--------------| 5-------------- 0--------------|
http://classicalguitartablature.blogspot.com/
E|--------------------------------| 2------ 2-- 3-- 2--------------|
B| 7---------- 5-------------- 5--| 2-- 6-- 2-- 2-- 2-- 5-- 3-- 2--|
G|-------- 6-------------- 4------| 3-- 3-- 3-- 3-- 3-- 4-- 3-- 3--|
D|---- 7-------------- 2----------|---------------------------- 2--|
A|--------------------------------|---------------- 4--------------|
E| 5-------------- 3--------------| 2------------------------------|
http://classicalguitartablature.blogspot.com/
E|--------------------------------|-------------------- 4-- 5 7----|
B|------------ 2-- 3---------- 3 3|---- 2-- 3-- 5-- 7--------------|
G| 4-- 3-- 4-------------- 2------| 2-- 2-- 2-- 2-- 6--------------|
D| 4------------------ 4----------| 0------------------------------|
A| 2------------------------------|---------------- 6--------------|
E|---------------- 2--------------|--------------------------------|
http://classicalguitartablature.blogspot.com/
E| 9---------- 9--12--10-- 9------| 7-------------- 0--------------|
B|--------10------10----------10--| 7--10-- 9-- 7-- 3-- 3-- 2-- 0--|
G|---- 9---------- 9--------------| 7------ 8-- 8-- 2-- 2-- 1-- 1--|
D|--------------------------------|---- 7-- 7-- 7---------- 0------|
A|---------------- 9--------------|-------- 8-------------- 1------|
E| 0------------------------------| 7-------------- 0--------------|
http://classicalguitartablature.blogspot.com/
E|--------------------------------|-------------------- 4-- 5 7----|
B|-------- 3------ 4---- 5------ 3|---- 2-- 3-- 5-- 7--------------|
G| 2------ 2------ 2------ 4------| 2-- 2-- 2-- 2-- 6--------------|
D| 2------ 4------ 4------ 6------| 0------------------------------|
A|--------------------------------|---------------- 6--------------|
E|---- 0------ 2------ 2------ 4--|--------------------------------|
http://classicalguitartablature.blogspot.com/
E| 9---------- 9--12--10-- 9------| 7-------------- 0--------------|
B|--------10------10----------10--| 7--10-- 9-- 7-- 3-- 3-- 2-- 0--|
G|---- 9---------- 9--------------| 7------ 8-- 8-- 2-- 2-- 1-- 1--|
D|--------------------------------|---- 7-- 7-- 7---------- 0------|
A|---------------- 9--------------|-------- 8-------------- 1------|
E| 0------------------------------| 7-------------- 0--------------|
http://classicalguitartablature.blogspot.com/
E|------ 5---- 5-- 5--------------|--------------------------------|
B|-------- 5-- 5-- 5--------------|--------------------------------|
G| 2------ 2-- 2-- 2--------------|--------------------------------|
D| 2------------------------------|--------------------------------|
A| 0------ 0-- 0-- 0--------------|--------------------------------|
E|--------------------------------|--------------------------------|
http://classicalguitartablature.blogspot.com/

0 ความคิดเห็น:

แสดงความคิดเห็น