-----[FreeSplanS.com]-----ศูนย์รวมแบบบ้าน และ ตกแต่ง หลากหลายสไตล์-----

Titanic Theme: My Heart Will Go On

Classic movie theme song fingerstyle solo guitar arrangement played in the key of G.
http://classicalguitartablature.blogspot.com/

http://classicalguitartablature.blogspot.com/
My Heart Will Go On played in the key of G. Easy arrangement follows by intermediate version.
http://classicalguitartablature.blogspot.com/
E|--------------------------------| 7-------------------- 5 7 5 3--|
B|------------------------ 8--10--| 8---------- 8----------------10|
G|--------------------------------|-------- 7---------- 7--------11|
D|--------------------------------|---- 9---------- 9------------12|
A|--------------------------------| 7------------------------------|
E|--------------------------------|------------------------------10|
http://classicalguitartablature.blogspot.com/
E|--10--------------10---------- 3|--------------------------------|
B|--------------10------13--12-- 1|---------- 1------------ 1------|
G|----------11--------------------|------ 0------------------------|
D|------12------------------------|-- 2---------- 2---------- 2----|
A|------------------------------ 3|------------------------------ 3|
E|--------------------------------|--------------------------------|
http://classicalguitartablature.blogspot.com/
E|------------------------ 3-- 5--| 7-------- 7---------- 5 7 5 3--|
B|------------ 1---------- 3-- 3--| 0----------------------------10|
G|-------- 0----------------------|-------- 0---------- 0--------11|
D|-- 2---------- 4---- 4----------|---- 0---------- 0------------12|
A|---------------- 5--------------|--------------------------------|
E|--------------------------------| 0----------------------------10|
http://classicalguitartablature.blogspot.com/
E|--10--------------10------------| 3------------------------------|
B|--------------10------13--12----| 3---------- 3---------- 3------|
G|----------11--------------------|-------- 2---------- 2----------|
D|------12------------------------|---- 2---------------------- 2--|
A|--------------------------------| 3------------------------------|
E|--------------------------------|--------------------------------|
http://classicalguitartablature.blogspot.com/
E|--------------------------------| 3-------- 3---- 3---- 3--------|
B|------------ 3-------------- 5--| 0-------- 0---- 0---- 0--------|
G|-------- 2-------------- 5------| 0---- 0-------- 0 0-------- 0--|
D|---- 2-------------- 5----------|---- 0--------------------------|
A| 3-------------- 5--------------|--------------------------------|
E|--------------------------------| 3------------------------------|
http://classicalguitartablature.blogspot.com/
E| 2------ 3-------- 3------ 3-- 2|------ 3------------ 3------ 5--|
B| 3------ 3---- 3----------------| 0---- 0------ 0------------ 3--|
G|---- 2---- 2---------- 2--------|-- 0-------- 0-------------- 0--|
D| 0------------------------------|--------------------------------|
A|--------------------------------| 3-------------------- 5--------|
E|--------------------------------|--------------------------------|
http://classicalguitartablature.blogspot.com/
E| 7---------- 7-- 5---------- 5--| 3-------- 3-- 3------ 3------ 2|
B| 8------ 8------ 7------ 7------| 0---- 0-- 0-- 0------ 0------ 3|
G|---- 7-------------- 7----------|---- 0-------- 0-- 0------ 0----|
D|--------------------------------|------------------------------ 0|
A| 7-------------- 5--------------|--------------------------------|
E|--------------------------------| 0------------------------------|
http://classicalguitartablature.blogspot.com/
E|------ 3-------------- 3--------|--------------------------------|
B|------ 3------ 3-------------- 3|---------- 3---------- 3--------|
G|-- 2------ 2------ 2------ 2-- 0|------ 0---------- 0------------|
D|--------------------------------|---- 2-------- 2---------- 2----|
A|------------------------------ 3|------------------------------ 3|
E|--------------------------------|--------------------------------|
http://classicalguitartablature.blogspot.com/
E|--------------------------------| 3-------- 3---- 3---- 3--------|
B|---------- 3-------------- 5----| 0-------- 0---- 0---- 0--------|
G|------ 0-------------- 0--------| 0---- 0-------- 0 0-------- 0--|
D|-- 2-------------- 4------------|---- 0--------------------------|
A|-------------- 5----------------|--------------------------------|
E|--------------------------------| 3------------------------------|
http://classicalguitartablature.blogspot.com/
E| 2------ 3-------- 3------ 3-- 2|------ 3------------ 3------ 5--|
B| 3------ 3---- 3----------------| 0---- 0------ 0------------ 3--|
G|---- 2---- 2---------- 2--------|-- 0-------- 0-------------- 0--|
D| 0------------------------------|--------------------------------|
A|--------------------------------| 3-------------------- 5--------|
E|--------------------------------|--------------------------------|
http://classicalguitartablature.blogspot.com/
E| 7---------- 7-- 5---------- 5--| 3-------- 3-- 3------ 3------ 2|
B| 8------ 8------ 7------ 7------| 0---- 0-- 0-- 0------ 0------ 3|
G|---- 7-------------- 7----------|---- 0-------- 0-- 0------ 0----|
D|--------------------------------|------------------------------ 0|
A| 7-------------- 5--------------|--------------------------------|
E|--------------------------------| 0------------------------------|
http://classicalguitartablature.blogspot.com/
E|------ 3-------------- 3--------|--------------------------------|
B|------ 3------ 3-------------- 3|---------- 3---------- 3--------|
G|-- 2------ 2------ 2------ 2-- 0|------ 0---------- 0------------|
D|--------------------------------|---- 2-------- 2---------- 2----|
A|------------------------------ 3|------------------------------ 3|
E|--------------------------------|--------------------------------|
http://classicalguitartablature.blogspot.com/
E|------------------------------ 3|--------------------------------|
B|---------- 3-------------- 5-- 0|---------- 0------------ 0------|
G|------ 0-------------- 0--------|------ 0------------ 0----------|
D|-- 2-------------- 4------------|-- 0------------ 0---------- 0--|
A|-------------- 5----------------|--------------------------------|
E|------------------------------ 0|--------------------------------|
http://classicalguitartablature.blogspot.com/
E| 5----------------------------10|---------- 8---------- 7------ 5|
B| 7---------- 7---------- 7---- 8|------ 8---------- 8---------- 7|
G|-------- 7---------- 7------ 7--|---- 9-------- 9---------- 9----|
D|---- 7---------- 7--------------|--------------------------------|
A| 5------------------------------|------------------------------ 5|
E|------------------------------ 8|--------------------------------|
http://classicalguitartablature.blogspot.com/
E|---------- 5-- 7-------- 8------| 7---------- 5---------- 3------|
B|------ 7------ 7------ 7--------| 0------ 0-------- 0------------|
G|-- 7---------------- 5------ 5--|---- 7---- 5---- 5---- 4---- 4--|
D|--------------------------------|--------------------------------|
A|-------------- 6----------------|--------------------------------|
E|--------------------------------| 0------------------------------|
http://classicalguitartablature.blogspot.com/
E| 2---- 3---------------- 3------|------------------------ 0------|
B| 3---- 3------ 3-------- 3---- 3|--------------------------------|
G|---- 2---- 2-------- 2---- 2-- 0|------ 0------------ 0----------|
D| 0------------------------------|---- 2------ 2-------------- 2--|
A|------------------------------ 3|--------------------------------|
E|--------------------------------|--------------------------------|
http://classicalguitartablature.blogspot.com/
E|------------------------------ 3|--------------------------------|
B|------------------------------ 0|---------- 0------------ 0------|
G|---- 0------ 0-------- 0--------|------ 0------------ 0----------|
D|-------- 2-------- 4------ 4----|-- 0------------ 0---------- 0--|
A| 3------------ 5----------------|--------------------------------|
E|------------------------------ 0|--------------------------------|
http://classicalguitartablature.blogspot.com/
E| 5----------------------------10|---------- 8---------- 7------ 5|
B| 7---------- 7---------- 7---- 8|------ 8---------- 8---------- 7|
G|-------- 7---------- 7------ 7--|---- 9-------- 9---------- 9----|
D|---- 7---------- 7--------------|--------------------------------|
A| 5------------------------------|------------------------------ 5|
E|------------------------------ 8|--------------------------------|
http://classicalguitartablature.blogspot.com/
E|---------- 5-- 7-------- 8------| 7---------- 5---------- 3------|
B|------ 7------ 7------ 7--------| 0------ 0-------- 0------------|
G|-- 7---------------- 5------ 5--|---- 7---- 5---- 5---- 4---- 4--|
D|--------------------------------|--------------------------------|
A|-------------- 6----------------|--------------------------------|
E|--------------------------------| 0------------------------------|
http://classicalguitartablature.blogspot.com/
E| 2---- 3---------------- 3------| 2---- 3---------- 3-- 5------ 7|
B| 3---- 3------ 3-------- 3------| 0------------ 0-------------- 5|
G|---- 2---- 2-------- 2---- 2----|---- 0---- 0-------------- 0----|
D| 0------------------------------|--------------------------------|
A|--------------------------------| 3---------------------------- 5|
E|--------------------------------|--------------------------------|
http://classicalguitartablature.blogspot.com/
E|---------- 7------------------ 3|--------------------------------|
B|------ 5------10----------10-- 3|---------- 3---------- 3------ 0|
G|-- 5---------- 7------ 7--------|------ 0---------- 0---------- 2|
D|------------------ 7------------|-- 0---------- 0---------- 0----|
A|-------------- 9----------------|--------------------------------|
E|------------------------------ 3|------------------------------ 2|
http://classicalguitartablature.blogspot.com/
E|---------------------- 3-- 5-- 7|--------------------------------|
B|---------- 0-------- 1 1-- 1-- 8|----------------------101210--10|
G|------ 2------------ 2----------| 7----------11------ 9 9----12 7|
D|-- 2-------------- 1------------|---- 9------10------ 9 9------ 7|
A|--------------------------------| 7------------------------------|
E|-------------- 1----------------|--------11----10------ 9------ 8|
http://classicalguitartablature.blogspot.com/
E|--10------------------ 8---- 7--| 3------------------------------|
B|------------------------ 6-- 6--| 5-------------- 1--------------|
G|---------------- 5---- 5---- 4--| 4---------- 2-- 0------ 4------|
D|------------ 7------ 4----------|---- 5------ 2------ 2------ 5--|
A|--------------------------------|------------------------ 5------|
E|-------- 7------ 5---- 4--------| 3------ 2------ 0--------------|
http://classicalguitartablature.blogspot.com/
E|---------------------- 3---- 5 7|--------------------------------|
B|---------------------- 3---- 3 8|----------------------101210--10|
G| 0---------- 0 0------ 2---- 2--| 7----------11------ 9 9----12 7|
D|---- 2------ 0 2----------------|---- 9------10------ 9 9------ 7|
A| 3------ 2------ 0--------------| 7------------------------------|
E|------------------ 3---- 2-- 1--|--------11----10------ 9------ 8|
http://classicalguitartablature.blogspot.com/
E|--10------------------ 8---- 7--| 3------------------------------|
B|------------------------ 6-- 6--| 5-------------- 1--------------|
G|---------------- 5---- 5---- 4--| 4---------- 2-- 0------ 4------|
D|------------ 7------ 4----------|---- 5------ 2------ 2------ 5--|
A|--------------------------------|------------------------ 5------|
E|-------- 7------ 5---- 4--------| 3------ 2------ 0--------------|
http://classicalguitartablature.blogspot.com/
E|------------------------------ 3|---------- 3--------------------|
B|------------------------------ 3|------------ 3 8-------- 8------|
G| 0---------- 0-- 0---- 5--------|-- 2-------- 2 7-------- 5------|
D|---- 2------ 0------ 2---- 4----|-------------------- 5------ 7--|
A| 3------ 2---- 0----------------|-------------- 7-------- 6------|
E|---------------------- 4------ 3|------ 2------------------------|
http://classicalguitartablature.blogspot.com/
E|------------------------ 3------| 2------ 3------------ 5------ 7|
B| 7------ 8-------------- 6------| 5------ 3------ 8------ 8------|
G| 7------ 7------ 5------ 5------| 4-- 4-- 2------ 7------ 5------|
D|---- 7------ 5------ 4------ 3--|------------ 2------ 7------ 7--|
A|--------------------------------|---------------- 7------ 6------|
E| 8------ 7------ 5------ 4------| 3------ 2----------------------|
http://classicalguitartablature.blogspot.com/
E|--------------------------------| 3---------- 3------------------|
B| 5--------------10--------------| 5---------- 3 8-------- 8---- 7|
G| 5-------- 7---- 8-------- 4----| 4---------- 2 7-------- 5------|
D|---- 5------ 7------ 7---- 4----|---- 5-------------- 5------ 7--|
A| 5------------------------------|-------------- 7-------- 6------|
E|------ 8-------- 7------ 5------| 3------ 2--------------------10|
http://classicalguitartablature.blogspot.com/
E|--------------------------------|--------------------------------|
B|------ 8-------------- 8------ 3|--------------------------------|
G| 7---- 7------ 7-------- 5---- 5|------------ 0 5-------------- 5|
D|-- 7-------- 7---- 5------ 7----|---- 5------ 2 5-- 5------ 5----|
A|--------------------------------|-------------- 7------ 6------ 5|
E|-------- 8---- 7------ 5--------| 3---- 2------------------------|
http://classicalguitartablature.blogspot.com/
E|------------------------------ 3|---------- 3--------------------|
B|---------------- 5------ 7---- 3|------------ 3 8-------- 8------|
G|---------- 7---- 7------ 5------|-- 2-------- 2 7-------- 5------|
D|-- 5------ 7-------- 5------ 7--|-------------------- 5------ 7--|
A|--------------------------------|-------------- 7-------- 6------|
E|------ 8-------- 7------ 5---- 3|------ 2------------------------|
http://classicalguitartablature.blogspot.com/
E|------------------------ 3------| 2------ 3------------ 5------ 7|
B| 7------ 8-------------- 6------| 5------ 3------ 8------ 8------|
G| 7------ 7------ 5------ 5------| 4-- 4-- 2------ 7------ 5------|
D|---- 7------ 5------ 4------ 3--|------------ 2------ 7------ 7--|
A|--------------------------------|---------------- 7------ 6------|
E| 8------ 7------ 5------ 4------| 3------ 2----------------------|
http://classicalguitartablature.blogspot.com/
E|--------------------------------| 3---------- 3------------------|
B| 5--------------10--------------| 5---------- 3 8-------- 8---- 7|
G| 5-------- 7---- 8-------- 4----| 4---------- 2 7-------- 5------|
D|---- 5------ 7------ 7---- 4----|---- 5-------------- 5------ 7--|
A| 5------------------------------|-------------- 7-------- 6------|
E|------ 8-------- 7------ 5------| 3------ 2--------------------10|
http://classicalguitartablature.blogspot.com/
E|--------------------------------|--------------------------------|
B|------ 8-------------- 8------ 3|--------------------------------|
G| 7---- 7------ 7-------- 5---- 5|------------ 0 5-------------- 5|
D|-- 7-------- 7---- 5------ 7----|---- 5------ 2 5-- 5------ 5----|
A|--------------------------------|-------------- 7------ 6------ 5|
E|-------- 8---- 7------ 5--------| 3---- 2------------------------|
http://classicalguitartablature.blogspot.com/
E|------------------------------ 3|------------------------------ 5|
B|-------------- 5------ 7------ 0|------------------------------ 7|
G|---------- 7-- 5------ 5--------|---------- 2---- 4-------- 4-- 7|
D|-- 5------ 7------ 5-- 7-- 7----|---- 0---- 2-------- 2---- 3----|
A|-------------- 5------ 6--------|--------------------------------|
E|------ 8---------------------- 0|-------- 2------ 3---- 4------ 5|
http://classicalguitartablature.blogspot.com/
E|--------------------------------|10------------ 8------ 7--------|
B|---------------------- 3--------| 8----10------ 8-------- 5------|
G|------ 7---------- 7-- 2--------|---- 9---- 9-- 9-------- 5------|
D|---- 7------ 6---- 7------ 4----|---------- 9--------10------ 5--|
A|---------------------- 5--------| 7---- 9--------10--------------|
E|------ 7------ 8----------------|------------------------ 5------|
http://classicalguitartablature.blogspot.com/
E| 5------------------------------| 7------------ 5------ 3--------|
B| 8--------------12------13------| 8------------ 5------ 6------ 7|
G| 7------ 7------11------12------| 7---------- 2 4---- 4 5------ 7|
D|---- 5------ 7------12--10--10--|---- 9------ 1------------ 3----|
A|--------------------------------| 7------------------------------|
E| 7------ 8------10------11------|-------- 2---- 3------ 4------ 5|
http://classicalguitartablature.blogspot.com/
E|--------------------------------|--------------------------------|
B|-------- 8------------ 8------ 3|--------------------------------|
G|-------- 7---- 7------ 5------ 0|---------- 2-- 0------ 4------ 5|
D|---- 7---- 7-- 7---- 7---- 7----|---- 2---- 2-- 2-- 2------ 3----|
A|---------------------- 5--------|--------------------------------|
E|-------- 7---- 8-------------- 0|------ 2-------- 3---- 4------ 5|
http://classicalguitartablature.blogspot.com/
E|--------------------------------|--------------------------------|
B|------------------------------ 8|------------------------------10|
G|------ 8------ 9------11------ 7|------------ 5------ 4----------|
D|-- 4------ 7------ 7------ 9----|---- 5------ 7------ 5---- 5----|
A|------------------------------ 7|-------- 6------ 5------ 4------|
E|------ 7------ 8--------11------|--------------------------------|
http://classicalguitartablature.blogspot.com/
E|------------------------------10|-------------- 8-------- 7------|
B|---------------------- 3--------|10------------ 8-------- 7------|
G| 7-------- 7-- 5------ 5--------| 9-------------- 7------ 5------|
D| 7-- 7---- 7------ 4-- 3---- 3--|---- 9---- 9-------- 7------ 5--|
A|--------------------------------|10---- 9-------- 7------ 6------|
E| 8---- 7------ 5------ 4--------|--------------------------------|
http://classicalguitartablature.blogspot.com/
E| 5-------------- 7------ 8------|--------------------------------|
B| 5-------------- 7------ 7------|12--------------10------ 8------|
G| 5---------- 7-- 8------ 5------| 9-------------- 7------ 5------|
D|---- 5------ 7------ 7------ 7--|---- 9------ 9------ 9-- 7-- 7--|
A| 5------------------------------|10------ 9------ 7------ 6------|
E|-------- 8------ 7---- 5--------|--------------------------------|
http://classicalguitartablature.blogspot.com/
E|--------------------------------| 2------ 3-------------- 5------|
B| 7------ 8-------------- 8------| 5------ 3-------------- 7------|
G| 7------ 7------ 7------ 5------|---- 4-- 2------ 0------ 5------|
D|---- 7 7---- 7------ 5-- 7-- 7--|------------ 2------ 2------ 7--|
A| 5------------------------------|------------------------ 6------|
E|-------- 8------ 7------ 5------| 3------ 2------ 0--------------|
http://classicalguitartablature.blogspot.com/
E| 7------------------------------| 3------------------------------|
B| 5------------10----------------| 3-------- 3--------------------|
G| 5---------- 7-- 7---- 5--------| 2---- 2------------------------|
D|---- 5------ 7------ 9------ 4--|---- 2---------- 2--------------|
A| 5------------------------------|--------------------------------|
E|------ 8-------- 7------ 5---- 3|--------------------------------|
http://classicalguitartablature.blogspot.com/

0 ความคิดเห็น:

แสดงความคิดเห็น