To celebrate the anniversary, I am giving you (finally...) : iPhone LickByNeck !!!!!!

Unchained Melody

Classic hit fingerstyle chord melody guitar arrangement played in the key of D.

http://classicalguitartablature.blogspot.com/
Unchained Melody played in the key of D.
Classical Guitar Tablature http://classicalguitartablature.blogspot.com/
E| 0------------------------------|------------------------------ 2|
B| 3---- 3------ 2------ 3------ 5|------ 3------ 2------ 3------ 3|
G|---- 2------ 2------ 2------ 2 2|---- 2------ 2------ 2------ 2--|
D|-- 4------ 4------ 2------ 2----|-- 4------ 4---- 2---- 4 4------|
A| 5------------ 4-------------- 2|--------------------------------|
E|--------------------------------|-------------- 5-------------- 3|
Classical Guitar Tablature http://classicalguitartablature.blogspot.com/
E|--------------------------------|--------------------------------|
B|---- 3 5-------- 3------ 2------| 3---- 3-------------- 3--------|
G|-- 4-- 4---- 4------ 4-- 2-- 2--|---- 2------ 2------ 4---- 4----|
D|---------- 4------ 5------ 2----|-- 4------ 4------ 5-------- 5--|
A|------------------------ 4------| 5------------------------------|
E|------ 4-------- 5--------------|---------------- 5--------------|
Classical Guitar Tablature http://classicalguitartablature.blogspot.com/
E|------------------------ 0------| 2------------------------------|
B| 3-------------------------- 2--| 3-- 5---------------------- 5--|
G| 2-- 2------ 2------ 2---- 0----|---- 2-- 7-- 7------ 4------ 4--|
D|-- 4------ 4------ 4------------|-- 4------ 5------ 4------ 4----|
A| 5---------------------- 1------| 2------------------------------|
E|-------- 5------ 2--------------|-------- 6------ 5------ 4------|
Classical Guitar Tablature http://classicalguitartablature.blogspot.com/
E| 2------------------------------|--------------------------------|
B| 3-- 5-- 3---------------- 0----|------------------------ 7-- 5--|
G|-- 4---- 2-- 2------ 2 0--------| 2-- 2-------------- 2-- 7-- 2--|
D|---------- 2------ 1-- 0---- 0--|-- 2------ 0------ 5 5-- 5-- 2--|
A|--------------------------------| 4------ 2-- 2-------------- 4--|
E| 3------ 2------ 1------ 0------|---------------- 5------ 7------|
Classical Guitar Tablature http://classicalguitartablature.blogspot.com/
E|------------------------ 0------| 2------------------------------|
B| 3-------------------------- 2--| 3-- 5--------------------------|
G| 2---- 2---- 2------ 2---- 0----| 2------ 7---- 7---- 4-------- 0|
D|-- 4------ 4------ 4------------|-- 4------ 5------ 4---- 4------|
A| 5---------------------- 1------| 2------------------------------|
E|-------- 5------ 2--------------|-------- 6------ 5------ 4------|
Classical Guitar Tablature http://classicalguitartablature.blogspot.com/
E|--------------------------------|--------------------------------|
B|--------------------------------| 2------------------------------|
G| 2---- 2---- 2------ 2------ 0--| 2-- 2------ 7------ 9---- 9----|
D|-- 2------ 2------ 2------ 2----|-- 2------ 5------ 7-------- 7--|
A|------------------------ 4------|--------------------------------|
E| 3------ 2------ 0--------------| 5------ 7------ 8------ 9------|
Classical Guitar Tablature http://classicalguitartablature.blogspot.com/
E|------------------------ 0------| 2------------------------------|
B| 3-------------------------- 2--| 3-- 5---------------------- 5--|
G| 2-- 2------ 2------ 2---- 0----|---- 2-- 7-- 7------ 4------ 4--|
D|-- 4------ 4------ 4------------|-- 4------ 5------ 4------ 4----|
A| 5---------------------- 1------| 2------------------------------|
E|-------- 5------ 2--------------|-------- 6------ 5------ 4------|
Classical Guitar Tablature http://classicalguitartablature.blogspot.com/
E| 2------------------------------|--------------------------------|
B| 3-- 5-- 3---------------- 0----|------------------------ 7-- 5--|
G|-- 4---- 2-- 2------ 2 0--------| 2-- 2-------------- 2-- 7-- 2--|
D|---------- 2------ 1-- 0---- 0--|-- 2------ 0------ 5 5-- 5-- 2--|
A|--------------------------------| 4------ 2-- 2-------------- 4--|
E| 3------ 2------ 1------ 0------|---------------- 5------ 7------|
Classical Guitar Tablature http://classicalguitartablature.blogspot.com/
E|------------------------ 0------| 2------------------------------|
B| 3-------------------------- 2--| 3-- 5------------------ 3------|
G| 2---- 2---- 2------ 2---- 0----|---- 2-- 7-- 7------ 4-- 4-- 4--|
D|-- 4------ 4------ 4------------|-- 4---- 5 5------ 4---- 4 4----|
A| 5---------------------- 1------| 2------------------------------|
E|-------- 5------ 2--------------|-------- 6------ 5------ 4------|
Classical Guitar Tablature http://classicalguitartablature.blogspot.com/
E| 5------------------------------| 2------------------------------|
B| 5---------------------- 8------| 3-- 3------ 3-------------- 0--|
G|---- 6---- 7 7------ 9---- 6 6--|---- 2------ 2-- 2-- 2------ 2 2|
D|-- 5------ 5------ 7---- 7 7----|-- 4------ 4------ 2------ 0----|
A|------------------------ 7------| 5------------------------------|
E| 5------ 7------ 9--------------|-------- 5------ 3------ 1---- 2|
Classical Guitar Tablature http://classicalguitartablature.blogspot.com/
E|--------------------------------|--------------------------------|
B|--------------------------------| 3------------------------------|
G|------------ 2------ 6------ 6--| 2---------- 2---------- 0-- 0--|
D|---- 2---- 2---- 4-- 4---- 5----|---- 4---- 4---- 4-------- 0-- 4|
A|--------------------------------| 2------------------------------|
E|-------- 3------ 5------ 6------|-------- 5------ 4-- 2-- 0------|
Classical Guitar Tablature http://classicalguitartablature.blogspot.com/
E|--------------------------------|--------------------------------|
B|---------------- 2------------ 0|--------------------------------|
G|------ 6---- 6-- 2-- 2 5---- 5 0|---- 0-- 0----------------------|
D|------ 4---- 4-------- 4---- 4--|-- 0-------- 0-- 5-- 5-- 2-- 2--|
A|---------------- 4--------------|---------- 2------ 5-- 2-- 2----|
E| 2-- 2-- 5-------------- 4---- 3|-------- 0----------------------|
Classical Guitar Tablature http://classicalguitartablature.blogspot.com/
E|---------------------- 7--------|--------------------------------|
B| 5-- 7-- 5-- 7--10---- 8---- 8 7|---- 5 3---- 3---- 5-- 5--------|
G| 7-- 6-- 7-- 7-- 9-- 9---- 6-- 6|---- 6 4---- 4---- 4-- 3---- 3--|
D| 5-- 5-- 5-- 8---- 7---------- 7|---- 7 3---- 3------ 5 5-- 5----|
A|---------------------- 7--------| 5------------ 4-------- 3------|
E| 5-- 6-- 7-- 8-- 9--------------|-------- 3----------------------|
Classical Guitar Tablature http://classicalguitartablature.blogspot.com/
E|--------------------------------|--------------------------------|
B| 5-- 5---- 5---- 5-- 5---- 5----|------------ 3-- 2-- 2---- 2 3 0|
G| 7-- 7---- 7---- 5-- 5---- 5----| 0-- 2-- 4------ 2-- 2---- 4 4--|
D| 7-- 7---- 6---- 5-- 5---- 4----|-- 0---- 4 4---- 2-- 2---- 4 4--|
A|--------------------------------|--------------------------------|
E| 7------ 6-- 6-- 5------ 4-- 4--| 3------ 4------ 5------ 4------|
Classical Guitar Tablature http://classicalguitartablature.blogspot.com/
E|--------------------------------|--------------------------------|
B|---- 0------ 0------------------|------------ 3-- 5--------------|
G| 0-- 0---- 0-- 2------ 5---- 5 0|---- 2-- 4------ 6-------- 9 7--|
D| 0-- 0------------ 3------ 3 3--|-- 0---- 4 4------ 7------ 7 7--|
A|--------------------------------|--------------------------------|
E| 3---- 0------ 1---- 3-- 5-- 4 3|-------- 4------ 5-- 7-- 9------|
Classical Guitar Tablature http://classicalguitartablature.blogspot.com/
E|---- 5-- 7----------------------|--------------------------------|
B| 7------10--10-- 7-- 5-- 3------|------------ 3-- 2-- 2---- 2 3 0|
G| 6------ 9-- 9-- 7-- 6-- 5------| 0-- 2-- 4------ 2-- 2---- 4 4--|
D|-- 7------ 7---- 7-- 5-- 5 5 4--|-- 0---- 4 4---- 2-- 2---- 4 4--|
A| 5------------------------------|--------------------------------|
E|-------- 9------ 7-- 6-- 5-- 4--| 3------ 4------ 5------ 4------|
Classical Guitar Tablature http://classicalguitartablature.blogspot.com/
E|--------------------------------|--------------------------------|
B|---- 0------ 0------------------|------------ 3-- 5--------------|
G| 0-- 0---- 0-- 2------ 5---- 5 0|---- 2-- 4------ 6-------- 9 7--|
D| 0-- 0------------ 3------ 3 3--|-- 0---- 4 4------ 7------ 7 7--|
A|--------------------------------|--------------------------------|
E| 3---- 0------ 1---- 3-- 5-- 4 3|-------- 4------ 5-- 7-- 9------|
Classical Guitar Tablature http://classicalguitartablature.blogspot.com/
E|---- 5-- 7----------------------|------------------------ 0------|
B| 7------10--10-- 7-- 5-- 3------| 3-------------------------- 2--|
G| 6------ 9-- 9-- 7-- 7-- 4-- 2--| 2-- 2------ 2------ 2---- 0----|
D|-- 7------ 7---- 5 5 5-- 5-- 2--|-- 4------ 4------ 4------------|
A| 5-------------------------- 4--| 5---------------------- 1------|
E|-------- 9------ 7-- 6-- 5------|-------- 5------ 2--------------|
Classical Guitar Tablature http://classicalguitartablature.blogspot.com/
E| 2------------------------------| 2------------------------------|
B| 3-- 5---------------------- 5--| 3-- 5-- 3---------------- 0----|
G|---- 2-- 7-- 7------ 4------ 4--|-- 4---- 2-- 2------ 2 0--------|
D|-- 4------ 5------ 4------ 4----|---------- 2------ 1-- 0---- 0--|
A| 2------------------------------|--------------------------------|
E|-------- 6------ 5------ 4------| 3------ 2------ 1------ 0------|
Classical Guitar Tablature http://classicalguitartablature.blogspot.com/
E|--------------------------------|------------------------ 0------|
B|------------------------ 7-- 5--| 3-------------------------- 2--|
G| 2-- 2-------------- 2-- 7-- 2--| 2---- 2---- 2------ 2---- 0----|
D|-- 2------ 0------ 5 5-- 5-- 2--|-- 4------ 4------ 4------------|
A| 4------ 2-- 2-------------- 4--| 5---------------------- 1------|
E|---------------- 5------ 7------|-------- 5------ 2--------------|
Classical Guitar Tablature http://classicalguitartablature.blogspot.com/
E| 2------------------------------| 5------------------------------|
B| 3-- 5------------------ 3------| 5------------------------------|
G|---- 2-- 7-- 7------ 4-- 4-- 4--|---- 6---- 7 7------ 9------ 6--|
D|-- 4---- 5 5------ 4---- 4 4----|-- 5------ 5------ 7------ 7----|
A| 2------------------------------|------------------------ 7------|
E|-------- 6------ 5------ 4------| 5------ 7------ 9--------------|
Classical Guitar Tablature http://classicalguitartablature.blogspot.com/
E| 9-- 9---- 7-- 9-- 7 5------ 5--|14------10----------------------|
B|10--10----1010-- 8 8 7------ 7--|10--10--10------10--------12--10|
G| 9-- 9---- 7 7-- 7 7 6----------|--11------ 9----11--11----10----|
D|------------ 7------------ 5----|----------------1212------12----|
A|10------ 9------ 7--------------|-------- 9-- 9--12------10--10--|
E|------------------------ 5------|10------------------------------|
Classical Guitar Tablature http://classicalguitartablature.blogspot.com/
E|--------------------------------|10------------------------------|
B|--------------------------------| 7--------10---- 7-------- 8-- 7|
G| 9-- 9------ 9------ 9------ 6--| 7-- 7----11---- 7-- 7---- 8----|
D|-- 7------ 7------ 7------ 5----|-- 7------ 9---- 7 7------ 9----|
A| 9---- 7------------------------|---------------- 9------10--10--|
E|---------------- 9------ 6------| 7------10--10------------------|
Classical Guitar Tablature http://classicalguitartablature.blogspot.com/
E|------------------------------ 7|--------------------------------|
B|--------------------------------|---- 3------ 8-- 8--------------|
G| 9-- 9------ 6------ 2------ 6--|-- 4-------- 7--11--11-- 9-- 9--|
D|-- 7------ 7------ 2------ 4----|---------- 5------ 9------ 8----|
A| 9------ 7------ 4--------------|--------------------------------|
E|---------------------- 5------ 3|-------- 7----10-------- 8------|
Classical Guitar Tablature http://classicalguitartablature.blogspot.com/
E|---------------- 5------ 7------|--------------------------------|
B|---- 7-- 5-- 7-- 2 2----10------| 7-- 5-- 3----------------------|
G| 9-- 9-- 7-- 7---- 2---- 7 7----| 7-- 6-- 4----------------------|
D|-- 7------ 5 5---- 2------ 7----| 5 5 5-- 4----------------------|
A|------------------------ 9-- 8--| 7-- 6 5------------------------|
E| 9-- 8-- 7-- 6-- 5-- 3----------|--------------------------------|
Classical Guitar Tablature http://classicalguitartablature.blogspot.com/
E|--------------------------------|--------------------------------|
B|--------------------------------|--------------------------------|
G|--------------------------------|--------------------------------|
D|--------------------------------|--------------------------------|
A|--------------------------------|--------------------------------|
E|--------------------------------|--------------------------------|

0 ความคิดเห็น:

แสดงความคิดเห็น