To celebrate the anniversary, I am giving you (finally...) : iPhone LickByNeck !!!!!!

While My Guitar Gently Weeps

Classic Beatles' hit fingerstyle chord melody guitar arrangement played in the key of Dm. 2 arranngements were done: An easy version follows by an intermediate version.


http://classicalguitartablature.blogspot.com/
2 Arrangements of While My Guitar Gently Weeps played in the key of Dm.
Classical Guitar Tablature http://classicalguitartablature.blogspot.com/
E|--------------------------------|-------------------------- 1----|
B|------ 6-------------- 3---- 3 3|-------- 3---- 3-------- 3------|
G|---- 5-- 5-- 5------ 2---- 2----|------ 0---- 0-------- 2------ 2|
D|-- 3------ 3------ 3---- 3------|---- 0---- 0-------- 3------ 3--|
A| 5------------ 3----------------| 2-------------- 1--------------|
E|--------------------------------|--------------------------------|
Classical Guitar Tablature http://classicalguitartablature.blogspot.com/
E|-------------------------- 0----|---------- 1--------------------|
B|-------- 6---- 6-------- 1------|-------- 1------ 2---- 2------ 3|
G|------ 5---- 5-------- 0--------|------ 2------ 2 0-- 0---- 2-- 5|
D|---- 3---- 3-------- 2---- 2-- 2|---- 3------ 3---- 2---- 2------|
A| 5-------------- 3--------------|---------------- 0--------------|
E|--------------------------------| 1------------------------------|
Classical Guitar Tablature http://classicalguitartablature.blogspot.com/
E|---------------------- 0 1------|------ 0 1---- 3-- 1---- 1-- 1--|
B|---- 3-- 5------ 3-- 3-------- 3|---- 3-------- 3-- 3 3---- 3----|
G|---- 5-- 5-- 5---- 2-------- 2--|-- 0-------- 0-- 2-- 2-- 2------|
D|-- 3-------- 3---- 0------ 0----| 0-------- 0--------------------|
A| 5-------------- 3--------------| 2------------ 1----------------|
E|--------------------------------|--------------------------------|
Classical Guitar Tablature http://classicalguitartablature.blogspot.com/
E|---- 5---------- 0--------------|--------------------------------|
B|---- 6-- 6 5---- 1-- 1 3-- 1-- 3|------ 3-- 3---- 2---- 2------ 3|
G|-------- 5 5 7------ 0----------|---- 0---- 0-------- 0---- 2-- 5|
D|-- 7-- 7------ 7-- 2---- 2-- 2--|-- 0---- 0---- 0-- 2---- 2------|
A| 5-------------- 3------------ 2|---------------- 0---- 4------ 5|
E|--------------------------------|--------------------------------|
Classical Guitar Tablature http://classicalguitartablature.blogspot.com/
E|---------------------- 0 1------|------ 0 1---- 3-- 1---- 1-- 1--|
B|---- 3-- 5------ 3-- 3-------- 3|---- 3-------- 3-- 3 3---- 3----|
G|---- 5-- 5-- 5---- 2-------- 2--|-- 0-------- 0 2---- 2-- 2------|
D|-- 3-------- 3---- 0------ 0----| 0-------- 0--------------------|
A|-------------- 3----------------| 2------------ 1----------------|
E|--------------------------------|--------------------------------|
Classical Guitar Tablature http://classicalguitartablature.blogspot.com/
E|---- 5---------- 0------------ 1|------ 1-------- 5--------------|
B|---- 6-- 6 5---- 1-- 1 3-- 1-- 1|------ 1-------- 5---- 5---- 5--|
G|-------- 5 5 7------ 0----------|---- 2-------------- 6---- 6----|
D|-- 7 7-------- 7-- 2---- 2-- 2--|-- 3------ 3------ 5---- 5---- 5|
A| 5-------------- 3--------------|--------------------------------|
E|--------------------------------| 1-------- 3-- 4 5--------------|
Classical Guitar Tablature http://classicalguitartablature.blogspot.com/
E|-------- 2-- 2-- 9--------------|---------------- 5 2------------|
B|------ 5-- 5----10----12----10--|-------- 7-- 7-- 2 2-- 2--------|
G|---- 2-------------- 9---- 9----|---- 7---- 9---- 2-- 2------ 2--|
D|-- 4--------------11----11----11|-- 7-- 7------ 7---------- 2 2--|
A| 5-------------- 9--------------|--------------------------------|
E|--------------------------------| 7-------------- 2--------------|
Classical Guitar Tablature http://classicalguitartablature.blogspot.com/
E|------ 0-- 0-- 5----------------| 2---- 0---- 0------------------|
B|------ 0 3 0-- 8------ 8 7------| 0-------------- 0---- 0 3-- 5--|
G|-- 0---- 0---------- 7------ 7--|---- 0---- 0-------- 0-- 0-- 2--|
D| 0---- 0------ 0-- 5---------- 5| 0 0---- 0---- 0 0---------- 2--|
A|-------------- 7----------------| 0-------------- 0------ 2-- 4--|
E| 0------------------------------|--------------------------------|
Classical Guitar Tablature http://classicalguitartablature.blogspot.com/
E|-------- 2-- 2-- 9--------------|---------------- 5 2------------|
B|------ 5-- 5----10----12----10--|-------- 7-- 7-- 2 2-- 2--------|
G|---- 2-------------- 9---- 9----|---- 7---- 9---- 2-- 2------ 2--|
D|-- 4--------------11----11----11|-- 7-- 7------ 7---------- 2 2--|
A| 5-------------- 9--------------|--------------------------------|
E|--------------------------------| 7-------------- 2--------------|
Classical Guitar Tablature http://classicalguitartablature.blogspot.com/
E|------ 0-- 0-- 5-------------- 2|------ 0------------------------|
B|------ 0 3 0-- 8------ 8 7------| 0-- 0-------- 0 3---- 3 5---- 3|
G|-- 0---- 0---------- 7------ 7--|-------- 0-- 0------ 0------ 2--|
D| 0---- 0------ 0-- 5---------- 5|-- 0------ 0------ 0------ 2----|
A|-------------- 7-------------- 0|---------------- 2------ 4------|
E| 0------------------------------|--------------------------------|
Classical Guitar Tablature http://classicalguitartablature.blogspot.com/
E|---------------------- 0 1------|--------------------------------|
B|------ 3 5 6---- 3---- 3 3-- 3 3|------ 5-- 6---- 8 6------------|
G|---- 5-- 3---- 3 2-- 2 2-- 2-- 0|------ 4-- 5---- 7 5---- 2------|
D|-- 3-------- 5---- 3------------| 0---- 3-- 3-- 3 8 7-- 7-- 3----|
A| 5------ 4------ 3---- 0 1---- 2|---- 0--------------------------|
E|--------------------------------|-------- 3-- 5-- 6-- 5-- 1-- 0--|
Classical Guitar Tablature http://classicalguitartablature.blogspot.com/
E|-- 5---------- 0----------------|--------------------------------|
B| 6------ 6 5---- 1------ 3---- 3|------------------------ 5------|
G| 5-- 5-- 3 3 3-------- 0 5 5----| 0-- 0 4-- 5---- 6-- 7------ 2--|
D| 7------ 5 5 5---- 2---- 5 5-- 5| 0------ 3---- 4-- 5-- 5-- 2-- 2|
A| 5------ 4------ 3--------------| 2 0-------------------- 3-- 4--|
E|-------------------- 0-- 3-- 6--|------ 3-- 4-- 5---- 7----------|
Classical Guitar Tablature http://classicalguitartablature.blogspot.com/
E|---------------------- 0 1------|--------------------------------|
B| 3---- 3 5 6---- 3---- 3 3-- 3 3|------ 5-- 6---- 8 6------------|
G| 5-- 5-- 3---- 3 2-- 2 2-- 2-- 0|------ 4-- 5---- 7 5---- 2------|
D|-- 3-------- 5---- 3------------| 0---- 3-- 3-- 3 8 7-- 7-- 3----|
A| 5------ 4------ 3---- 0 1---- 2|---- 0--------------------------|
E|--------------------------------|-------- 3-- 5-- 6-- 5-- 1-- 0--|
Classical Guitar Tablature http://classicalguitartablature.blogspot.com/
E|-- 5---------- 0----------------|-------------- 5----------------|
B| 6------ 6 5---- 1------ 3------| 6------------ 5----------------|
G| 5-- 5-- 3 3 3-------- 0 5 5----| 5-- 2-- 3 5-- 6-- 7---- 9---- 7|
D| 7------ 5 5 5---- 2---- 5 5-- 5|-- 7-- 3 3-- 3---- 5 5-- 7---- 7|
A| 5------ 4------ 3--------------|--------------------------------|
E|-------------------- 0-- 3-- 6--| 8-- 1-- 3-- 4 5---- 7-- 8 9--10|
Classical Guitar Tablature http://classicalguitartablature.blogspot.com/
E|------------ 2-- 9--------------|------------ 2-- 5 2------------|
B|-------- 7 5 5--10------1210----|-------- 7 5 5-- 2 5------------|
G|-------- 7 7 4---- 9---- 9 9----| 7------ 7 7 4-- 2 4-- 4 6-- 2--|
D|-- 7---- 7---- 2--11--1111 7-- 7|-- 7-- 5------ 2------ 2 4-- 2--|
A|---------------- 9--------------|---------------------------- 4--|
E|---- 9-- 5-- 3------12-- 9-- 8--| 7-- 6-- 5-- 3-- 2-- 3-- 5------|
Classical Guitar Tablature http://classicalguitartablature.blogspot.com/
E|---------------- 5---- 2--------|--------------------------------|
B|-------- 5-- 5-- 7---- 5 5-- 3--| 7------ 5----------------------|
G|-------- 7 7 7---- 7-- 4-- 4 2 2| 7 7-- 5 4---- 4 2---- 0------ 7|
D| 9---- 9 5---- 5------ 4-- 2-- 1| 5 5-- 7 5 5------ 2------ 0----|
A|--------------------------------| 7-- 6-- 5-- 4-- 3-- 2 1---- 0--|
E|10-- 9-- 7-- 6-- 5-- 4-- 3-- 2 1|------------------------------10|
Classical Guitar Tablature http://classicalguitartablature.blogspot.com/
E|------------ 2-- 9--------------|------------ 2-- 5 2------------|
B|-------- 7 5 5--10------1210----|-------- 7 5 5-- 2 5------------|
G|-------- 7 7 4---- 9---- 9 9----| 7------ 7 7 4-- 2 4-- 4 6-- 2--|
D|-- 7---- 7---- 2--11--1111 7-- 7|-- 7-- 5------ 2------ 2 4-- 2--|
A|---------------- 9--------------|---------------------------- 4--|
E|---- 9-- 5-- 3------12-- 9-- 8--| 7-- 6-- 5-- 3-- 2-- 3-- 5------|
Classical Guitar Tablature http://classicalguitartablature.blogspot.com/
E|---------------- 5---- 2--------|--------------------------------|
B|-------- 5-- 5-- 7---- 5 5-- 3--| 7------ 5-------------------- 3|
G|-------- 7 7 7---- 7-- 4-- 4 2 2| 7 7-- 5 4---- 4 2---- 0--------|
D| 9---- 9 5---- 5------ 4-- 2-- 1| 5 5-- 7 5 5------ 2------ 0----|
A|--------------------------------| 7-- 6-- 5-- 4-- 3-- 2 1---- 0--|
E|10-- 9-- 7-- 6-- 5-- 4-- 3-- 2 1|--------------------------------|
Classical Guitar Tablature http://classicalguitartablature.blogspot.com/
E|---------------------- 0 1------|--------------------------------|
B|------ 3 5 6---- 3---- 3 3-- 3 3|------ 5-- 6---- 8 6------------|
G|---- 5-- 3---- 3 2-- 2 2-- 2-- 0|------ 4-- 5---- 7 5---- 2------|
D|-- 3-------- 5---- 3------------| 0---- 3-- 3-- 3 8 7-- 7-- 3----|
A| 5------ 4------ 3---- 0 1---- 2|---- 0--------------------------|
E|--------------------------------|-------- 3-- 5-- 6-- 5-- 1-- 0--|
Classical Guitar Tablature http://classicalguitartablature.blogspot.com/
E|-- 5---------- 0----------------|--------------------------------|
B| 6------ 6 5---- 1------ 3---- 3|------------------------ 5------|
G| 5-- 5-- 3 3 3-------- 0 5 5----| 0-- 0 4-- 5---- 6-- 7------ 2--|
D| 7------ 5 5 5---- 2---- 5 5-- 5| 0------ 3---- 4-- 5-- 5-- 2-- 2|
A| 5------ 4------ 3--------------| 2 0-------------------- 3-- 4--|
E|-------------------- 0-- 3-- 6--|------ 3-- 4-- 5---- 7----------|
Classical Guitar Tablature http://classicalguitartablature.blogspot.com/
E|---------------------- 0 1------|--------------------------------|
B| 3------ 5 6---- 3---- 3 3-- 3 3|------ 5-- 6---- 8 6------------|
G| 5-- 5-- 3---- 3 2-- 2 2-- 2-- 0|------ 4-- 5---- 7 5---- 2------|
D|-- 3-- 3---- 5---- 3------------| 0---- 3-- 3-- 3 8 7-- 7-- 3----|
A| 5------ 4------ 3---- 0 1---- 2|---- 0--------------------------|
E|--------------------------------|-------- 3-- 5-- 6-- 5-- 1-- 0--|
Classical Guitar Tablature http://classicalguitartablature.blogspot.com/
E|-- 5---------- 0----------------|--------------------------------|
B| 6------ 6 5---- 1------ 3---- 3|------------------------ 5------|
G| 5-- 5-- 3 3 3-------- 0 5 5----| 0-- 0 4-- 5---- 6-- 7------ 2--|
D| 7------ 5 5 5---- 2---- 5 5-- 5| 0------ 3---- 4-- 5-- 5-- 2-- 2|
A| 5------ 4------ 3--------------| 2 0-------------------- 3-- 4--|
E|-------------------- 0-- 3-- 6--|------ 3-- 4-- 5---- 7----------|
Classical Guitar Tablature http://classicalguitartablature.blogspot.com/
E|------------ 1------------------|--------------------------------|
B| 3---- 3 5-- 3---- 3---------- 5|---- 6---- 3------------ 5---- 6|
G| 5-- 5-- 3------ 2 2---------- 6|---- 5---- 3------------ 7---- 6|
D|-- 3------ 5------ 3-- 3-- 3-- 5| 5-- 3-- 3---- 3---- 3---- 5-- 5|
A| 5------ 4-- 3---- 1---- 0------|------------------------ 7---- 6|
E|------------------------------ 5|---- 4---- 3------ 1------------|
Classical Guitar Tablature http://classicalguitartablature.blogspot.com/
E|--------------------------------|-------- 5----------------------|
B|---- 8------ 6------------------|-------- 6---- 6-- 5-------- 5--|
G|---- 5------ 3-------- 2--------| 7------ 7 7-- 7-- 7-- 7---- 5--|
D|-- 5 7-- 7-- 5-- 5---- 3------ 3|---- 5-------- 6------ 6 6------|
A|---- 5------ 4---- 3------ 2----|-------------- 7----------------|
E|--------------------------------| 6------ 7------------ 6---- 5--|
Classical Guitar Tablature http://classicalguitartablature.blogspot.com/
E|--------------------------------|--------------------------------|
B|---------- 3------ 1------------|-------- 3------ 3------ 3------|
G|---------- 2------ 0------------|-------- 3---- 3------ 3--------|
D| 5---- 5-- 0-- 0-- 2-- 2--------|-------- 5-- 5---- 5------ 5----|
A|--------------------------------|------ 6------------------------|
E|-- 3------ 2------ 0------------|--------------------------------|
Classical Guitar Tablature http://classicalguitartablature.blogspot.com/

0 ความคิดเห็น:

แสดงความคิดเห็น