To celebrate the anniversary, I am giving you (finally...) : iPhone LickByNeck !!!!!!

A Whiter Shade Of Pale

A beautiful Gary Brooker and Keith Reid's song fingerstyle solo guitar arrangement played in the key of E.

A Whiter Shade Of Pale played in the key of E.
http://classicalguitartablature.blogspot.com/
E| 4------------------------------|------------------------ 4------|
B| 5------------------------------|-- 7---- 5 4---- 5-- 7-- 4-- 5--|
G| 4-------- 4-- 4---------- 2----|-- 6-- 6------ 6------ 4---- 4--|
D|---- 6------ 4------ 2---- 4----|-- 6-- 6-- 6-- 4------------ 3--|
A|-------- 6---- 4------ 3--------|--------------------------------|
E| 0---------------------------- 7|------ 6------ 5------ 4---- 3--|
http://classicalguitartablature.blogspot.com/
E| 9----------------------1112----|------------------------------11|
B|10--------------------12------10| 910---------------------- 7--12|
G| 9------ 7---------- 611------ 9|-------- 9------ 9---- 6-- 6--11|
D|----11------ 9------ 7--------10|------------ 7------ 7 6-- 6----|
A| 9------ 8------ 7--------------|------------------------------ 0|
E|----------------------11------10|-------- 9------ 8------ 7-- 6--|
http://classicalguitartablature.blogspot.com/
http://classicalguitartablature.blogspot.com/
E|--11------------------12--14-- 7| 5-- 7--------------------------|
B|--14------------------14------ 4|----------------------------10--|
G|-------- 4-------- 2--14------ 4|-------- 4------ 9---------- 9--|
D|---------- 2------ 2------------|------------ 4------ 7------ 7--|
A|------------------------------ 6|-------- 5----------------------|
E|-------- 4------ 2---- 0--------|---------------- 9------ 8---- 7|
http://classicalguitartablature.blogspot.com/
E|---------------- 9---------- 7--| 7------------------------------|
B|10-- 9-- 7-- 5-- 9---------- 4--| 7---------------------------- 5|
G| 9-- 9-- 6------ 9-- 9------ 4--| 7---------- 7------ 8------ 5--|
D| 9-- 9-- 6----------------------|---- 9------ 7------ 7------ 7--|
A|------------------------------10|-------- 9------ 8------ 6------|
E|------ 6------ 5-------- 4------|--------------------------------|
http://classicalguitartablature.blogspot.com/
E|---------- 4--------------------|--------------------------------|
B|-------- 7 7 7 9---------- 7-- 7|-- 5----------------------------|
G| 4------ 4 4 4 9---------- 6-- 6|------ 6 5---------- 4-- 4------|
D|-- 6---- 4-- 4 9-- 9------ 6-- 6|---- 6------ 4------ 2------ 2--|
A|-------- 6----------------------|--------------------------------|
E| 0------------ 9------ 7------ 6|-------- 5------ 4------ 3---- 2|
http://classicalguitartablature.blogspot.com/
E|--------------------------------|--------------------------------|
B|---------- 5 5 2 5---------- 5 2| 5 2----------------------------|
G| 2-------- 2 2 2 4---------- 2 2| 2---- 2 2---------- 1-- 5------|
D| 2-- 2---- 2 2 2 4-- 4------ 2 2|---- 4------ 2------ 2------ 4--|
A|-------------- 5-------- 4---- 3|-------- 2------ 1--------------|
E|-------- 0----------------------|------------------------ 5------|
http://classicalguitartablature.blogspot.com/
E|--------------------------------|--------------------------------|
B|-------- 4 4 2-- 4---------- 2--|------------------------------ 5|
G| 4------ 4 4 4-- 2-------- 2----| 6 4---------- 2---- 2------ 2 4|
D|---- 2-- 2 2 2 2---- 2---- 2-- 4|---- 4------ 4---- 2-- 2-- 4----|
A|------------------------------ 6|------ 5------ 4------ 3--------|
E| 4---- 3------ 2-------- 0------|------------------------------ 7|
http://classicalguitartablature.blogspot.com/
E|---------------- 4--------------| 2------------------------------|
B|---------- 9 9 7 5---------- 7--| 5 5----------------------------|
G|---------- 6 6 6------------ 4--| 4---- 4 2---------- 1------ 2--|
D|---- 6---- 6 6 6---- 4---- 6----|---- 2------ 2------ 0------ 2--|
A|--------------------------------|--------------------------------|
E|-------- 6---- 5-------- 4---- 3|-------- 2------ 1------ 0------|
http://classicalguitartablature.blogspot.com/
E|--------------------------------| 0------------------------------|
B|---------- 5 2-- 5---------- 2--| 2 2----------------------------|
G| 4-------- 2 2-- 2-------- 2-- 1|------ 1 5---------- 4-------- 2|
D|---- 4---- 2 2 4-- 4---- 2------|---- 2------ 4------ 2------ 2--|
A| 6------ 4---- 3------ 2------ 1|--------------------------------|
E|--------------------------------|-------- 5------ 4------ 3---- 2|
http://classicalguitartablature.blogspot.com/
E|--------------------------------|--------------------------------|
B|-------- 4 4 2 4---------- 2----| 2---------- 4------ 2------ 2 5|
G|-------- 2 2 2 4------ 2-- 2----|-- 4 4---- 4------ 4------ 2-- 4|
D|---- 2-- 2 2 2 4------ 2-- 2-- 2|-- 2------ 4---- 2------ 2------|
A|-------------- 6-- 5-- 4---- 3 2|--------------------------------|
E|------ 0------------------------|-------- 5------ 4------ 2---- 0|
http://classicalguitartablature.blogspot.com/
E|---------- 4 4-- 7------------ 9|---------- 4-------- 4-- 4 2----|
B|---------- 4 4-- 5---------- 9 9|---- 9---- 5-------- 5-- 2---- 5|
G|---------- 4 4-- 4---------- 9 9|---- 9---- 5-------- 4-- 4------|
D|---- 6-------------- 6------ 9--|---------- 4---- 4--------------|
A|------ 6-------- 4--------------|--------------------------------|
E|------------------------ 7------| 6---- 5------ 4-------- 3------|
http://classicalguitartablature.blogspot.com/
E|--------------------------------|---------------- 4---- 4---- 7 9|
B|---------- 5 5 7-- 5-- 5-- 2----| 5 2------------ 4---- 2---- 8 9|
G| 2-------- 2 2-- 6 6---- 2---- 2| 2---- 2 4-- 4-- 4---- 2---- 8 8|
D|---- 2---- 2 2-- 5 5 5-- 2-- 2--| 4-- 4---- 4-- 4----------------|
A|---------------- 6------ 4------| 3-------------------------- 8--|
E| 2------ 0----------------------|-------- 5------ 4---- 2--------|
http://classicalguitartablature.blogspot.com/
E|--------------------------------|--------------------------------|
B|---- 9--------12------------ 9 9|---------- 7-- 5----------------|
G|-- 8-------- 611----11------ 9 9|---- 9---- 6-- 5------ 5--------|
D|---------- 6------10------ 7----|-- 7---- 6---------- 4------ 4--|
A|-------- 6----------------------|--------------------------------|
E| 0--------------10---- 9------ 8|------ 6------ 5-------- 4------|
http://classicalguitartablature.blogspot.com/
E|-------------- 0----------------|--------------------------------|
B|---------- 5 5 2 3---------- 2 5| 2---- 2---- 2------------------|
G| 4-------- 2 2 2------ 2-- 2-- 2|---- 2-- 2 2------ 2-------- 3--|
D|---- 2 2-- 2 2 2---- 0-- 2---- 4|-- 4------ 4---- 2-- 2---- 2----|
A|------------------------------ 6|-------- 5---- 4------ 3--------|
E| 3------ 2------ 1---- 0--------|--------------------------------|
http://classicalguitartablature.blogspot.com/
E|--------------------------------|--------------------------------|
B|-------- 4 4---- 4---------- 2--| 2 0-------- 0-------- 2-- 5-- 5|
G|---- 4-- 4 4 6-- 4-- 4---- 4----| 2---- 2-- 1-------- 2 4-- 4-- 2|
D|-- 4---- 4---------- 2---- 2-- 2|---- 2---- 0------ 2------ 4-- 4|
A|--------------------------------|---------------------- 6-- 5-- 4|
E| 7---- 5-------- 4------ 3---- 2|-------- 1------ 0--------------|
http://classicalguitartablature.blogspot.com/
E|--------------------------------|--------------------------------|
B|------------ 5------------ 5-- 5|-------------- 5------------ 3--|
G|---- 2---- 2-------- 6 6-- 5----| 4---- 4---- 4-- 2---------- 2--|
D|-- 2---- 2-------- 6---- 6---- 4|---- 4---- 3-------- 2---- 1----|
A|------ 3------------------------|--------------------------------|
E|-------------- 7------ 6-- 5----| 4------ 3------ 2------ 1------|
http://classicalguitartablature.blogspot.com/
E| 4------------------------------|------------------------ 4------|
B| 5---- 4------------------------|-- 7---- 5 4---- 5-- 7-- 4-- 5--|
G| 4---------- 4-- 4---------- 2--|-- 6-- 6------ 6------ 4---- 4--|
D|---- 6------ 4------ 2------ 4--|-- 6-- 6-- 6-- 4------------ 3--|
A|-------- 6------ 4------ 3------|--------------------------------|
E| 0---------------------------- 7|------ 6------ 5------ 4---- 3--|
http://classicalguitartablature.blogspot.com/
E| 9----------------------1112----|------------------------------11|
B|10--------------------12------10| 910---------------------- 7--12|
G| 9------ 7---------- 611------ 9|-------- 9------ 9---- 6-- 6--11|
D|----11------ 9------ 7--------10|------------ 7------ 7 6-- 6----|
A| 9------ 8------ 7--------------|------------------------------ 0|
E|----------------------11------10|-------- 9------ 8------ 7-- 6--|
http://classicalguitartablature.blogspot.com/
E|--11------------------12--14-- 7| 5-- 7--------------------------|
B|--14------------------14------ 4|----------------------------10--|
G|-------- 4-------- 2--14------ 4|-------- 4------ 9---------- 9--|
D|---------- 2------ 2------------|------------ 4------ 7------ 7--|
A|------------------------------ 6|-------- 5----------------------|
E|-------- 4------ 2---- 0--------|---------------- 9------ 8---- 7|
http://classicalguitartablature.blogspot.com/
E|---------------- 9---------- 7--| 7------------------------------|
B|10-- 9-- 7-- 5-- 9---------- 4--| 7------------------------------|
G| 9-- 9-- 6------ 9-- 9------ 4--| 7---------- 7------ 8------ 5--|
D| 9-- 9-- 6----------------------|---- 9------ 7------ 7------ 7--|
A|------------------------------10|-------- 9------ 8------ 6------|
E|------ 6------ 5-------- 4------|------------------------------ 0|
http://classicalguitartablature.blogspot.com/
E|-- 0----------------------------|--------------------------------|
B|-- 0----------------------------|--------------------------------|
G| 1------------------------------|--------------------------------|
D| 4------------------------------|--------------------------------|
A| 2------------------------------|--------------------------------|
E|--------------------------------|--------------------------------|
http://classicalguitartablature.blogspot.com/

0 ความคิดเห็น:

แสดงความคิดเห็น