To celebrate the anniversary, I am giving you (finally...) : iPhone LickByNeck !!!!!!

Without You

Classic Air Supply's hit fingerstyle chord melody guitar arrangement played in the key of C.

http://classicalguitartablature.blogspot.com/
Without You played in the key of C.
http://classicalguitartablature.blogspot.com/
E|------------------------ 3------|------------------------ 3---- 5|
B| 8---- 8-------- 6---- 5 5----10|--1010---- 8 8-- 5---- 5------ 5|
G| 7---- 6-------- 5---- 4------ 9|---- 7---- 7 5-- 5-- 5 5---- 5 4|
D|---- 6------ 8---- 3-- 3------10|--10 9-- 9-- 5---- 5-- 3-- 3----|
A| 7------ 6------ 5---- 4--------|--------------------------------|
E|--------------------------------| 8---- 7------ 5------ 4------ 3|
http://classicalguitartablature.blogspot.com/
E|-- 5 5--------------------------| 3-------------- 0--------------|
B|-- 5 8-- 8---- 8 5------ 5-- 8--| 6-- 6-- 6-- 5-- 3-- 3-- 3-- 1--|
G|-- 4 5------ 5 7------ 7 6------| 5---- 5 3------ 2---- 2 2------|
D|---------- 7-------- 5---- 5-- 5|-- 3------ 5-- 5-- 3------ 3----|
A|------ 8------ 7-------- 6------| 5------ 4------ 3------ 2------|
E|--------------------------------|--------------------------------|
http://classicalguitartablature.blogspot.com/
E|-------------------- 0-- 0------|------------ 5-- 5-- 8-- 8-- 5--|
B| 5---- 5---------- 1-- 1 3-- 3--| 1-- 5-- 5-- 5-- 5-- 8-- 5-- 5--|
G| 4-- 4---- 4-- 4-- 2---- 2---- 2| 2-- 6-- 4---- 3 2-- 7-- 5-- 5--|
D|-- 3------ 2------ 2------ 0----| 2-- 5---- 6------ 2-- 7-- 5----|
A|--------------------------------|---- 6-- 5-- 4-- 3--------------|
E| 5---- 4-------- 2------ 1---- 0|-------------------- 7-- 5-- 3--|
http://classicalguitartablature.blogspot.com/
E| 5---- 5------ 5------ 5-- 8----|--------------------------------|
B| 5-- 5------ 5------ 5-- 6--11--| 8--------10-------- 5-- 3------|
G|-- 5------ 5------ 5---- 5--10--| 7---- 7---- 9------ 5-- 5-- 5--|
D|-------------------------- 7-- 8|---- 7-------- 9-- 5------ 3-- 3|
A|------------------------ 5------|--------------------------------|
E| 2------ 1------ 0---------- 9--| 8------ 7---- 5-------- 4------|
http://classicalguitartablature.blogspot.com/
E|-------------------------- 3----|------------------------ 3---- 5|
B| 3------------ 3------ 5-- 4--10|--1010---- 8 8-- 5---- 5------ 5|
G| 2---- 2---- 2-- 5-- 6 5-- 4-- 9|---- 7---- 7 5-- 5-- 5 5---- 5 4|
D|---- 3---- 3------ 5-- 5 3----10|--10 9-- 9-- 5---- 5-- 3-- 3----|
A|---------------- 7-- 6-- 5 4----|--------------------------------|
E| 3------ 1----------------------| 8---- 7------ 5------ 4------ 3|
http://classicalguitartablature.blogspot.com/
E|-- 5 5--------------------------| 3-------------- 0--------------|
B|-- 5 8-- 8---- 8 5------ 5-- 8--| 6-- 6-- 6-- 5-- 3-- 3-- 3-- 1--|
G|-- 4 5------ 5 7------ 7 6------| 5---- 5 3------ 2---- 2 2------|
D|---------- 7-------- 5---- 5-- 5|-- 3------ 5-- 5-- 3------ 3----|
A|------ 8------ 7-------- 6------| 5------ 4------ 3------ 2------|
E|--------------------------------|--------------------------------|
http://classicalguitartablature.blogspot.com/
E|-------------------- 0-- 0------|------------ 5-- 5-- 8-- 8-- 5--|
B| 5---- 5---------- 1-- 1 3-- 3--| 1-- 5-- 5-- 5-- 5-- 8-- 5-- 5--|
G| 4-- 4---- 4-- 4-- 2---- 2---- 2| 2-- 6-- 4---- 3 2-- 7-- 5-- 5--|
D|-- 3------ 2------ 2------ 0----| 2-- 5---- 6------ 2-- 7-- 5----|
A|--------------------------------|---- 6-- 5-- 4-- 3--------------|
E| 5---- 4-------- 2------ 1---- 0|-------------------- 7-- 5-- 3--|
http://classicalguitartablature.blogspot.com/
E| 5---- 5------ 5------ 5-- 8----|--------------------------------|
B| 5-- 5------ 5------ 5-- 6--11--| 8--------10-------- 5-- 3------|
G|-- 5------ 5------ 5---- 5--10--| 7---- 7---- 9------ 5-- 5-- 5--|
D|-------------------------- 7-- 8|---- 7-------- 9-- 5------ 3-- 3|
A|------------------------ 5------|--------------------------------|
E| 2------ 1------ 0---------- 9--| 8------ 7---- 5-------- 4------|
http://classicalguitartablature.blogspot.com/
E|--------------------------------|--------------------------------|
B| 3------------ 3------------ 3--| 5------------ 5------------ 3--|
G| 2---- 2---- 2-- 5-- 6-- 5-- 4--| 4---- 4---- 4---- 5------ 5-- 5|
D|---- 3---- 3------ 5-- 5-- 3-- 3|---- 5---- 5------ 5-- 5-- 3----|
A|---------------- 7-- 6-- 5-- 4--| 3------ 2----------------------|
E| 3------ 1----------------------|---------------- 5---- 4--------|
http://classicalguitartablature.blogspot.com/
E|--------------------------------|--------------------------------|
B| 3 1 1-- 1-- 3---- 1------ 5-- 6|-------------- 6 3------------ 3|
G| 2---- 2 2---------- 2-------- 6|------ 5---- 3-- 2---- 2---- 2--|
D| 2-------- 2-- 2------ 2 5------|-- 3------ 5-------- 3---- 3----|
A|---------------------- 6------ 5|-------- 4------ 3------ 2------|
E| 3------ 2---- 0----------------|------------------------------ 6|
http://classicalguitartablature.blogspot.com/
E|----------------------------12--|12--12----------------------10--|
B|---- 5-- 3-- 6--------------12--|12--12-------------- 8-- 8------|
G| 5-- 5-- 5-- 5-- 0-- 0-- 5--10--|--12-------- 5------ 7---- 7-- 9|
D|-- 6-- 3-- 3-- 3 0-- 0-- 7---- 9|---------- 7-------- 7----------|
A|------------------------ 5------|-------- 5------ 7------ 8----10|
E|---- 5-- 4-- 3-- 1-- 0------ 9--| 8------------------------------|
http://classicalguitartablature.blogspot.com/
E|10 8------10---- 8----------12--|15--13--------------------12----|
B| 8----10-------- 8--10----10----|10------------------------10----|
G|--------12------ 7---- 7-- 9----|--10--10 6---- 6---- 7-------- 9|
D|--------10----10----------11--11|---------- 8------ 7----10------|
A|--------12----------------------|-------- 7---- 8------ 9--------|
E|-------------- 7-------- 9------|10------------------------------|
http://classicalguitartablature.blogspot.com/
E|1312----10--13------------12----|12------------------------------|
B|1010----10----------------15----|12----12 8---------- 8---- 8----|
G|10------10------------12--12----|--12---- 8-- 8------ 7---- 6----|
D|--10--10--10--10--12------------|---------- 7------ 6-------- 5--|
A|10------12------13------14------|--------------------------------|
E|--------------------------------| 8------ 7------ 6------ 5------|
http://classicalguitartablature.blogspot.com/
E|--------------------------------|--------------------------------|
B| 6-------- 4---- 3--------------|--------------------------------|
G| 5-- 5---- 4---- 4--------------|--------------------------------|
D|-- 4-- 3---- 3-- 2--------------|--------------------------------|
A|-------------- 3----------------|--------------------------------|
E| 4------ 3----------------------|--------------------------------|
http://classicalguitartablature.blogspot.com/

0 ความคิดเห็น:

แสดงความคิดเห็น