To celebrate the anniversary, I am giving you (finally...) : iPhone LickByNeck !!!!!!

Wonderful Tonight

Classic Eric Clapton's hit fingerstyle solo guitar arrangement played in the key of F.


http://classicalguitartablature.blogspot.com/
Wonderful Tonight played in the key of F.
Classical Guitar Tablature http://classicalguitartablature.blogspot.com/
E|-------------- 5----------------|--------------------------------|
B|-------------- 6---- 8------ 8--| 5--------------10-- 8-- 6 3----|
G|------ 2------ 5---- 5--10------| 5---------- 5-- 8-- 8-- 8 3----|
D|---- 3-------------- 7--10------| 5-- 5------ 5-- 8-- 8-- 7 3----|
A|------------------------------ 7|-------- 5----------------------|
E| 1---------- 5---------- 8------|-------------- 8-------- 7---- 6|
Classical Guitar Tablature http://classicalguitartablature.blogspot.com/
E|---------------- 5-- 3-- 1------|-------- 5------ 6------10------|
B|---------------- 3-- 3 3--------| 8------ 6------ 3------10------|
G|---- 3------ 5 3---- 3-- 3 3----| 5---- 6---- 6-- 3-- 3 9---- 9--|
D|---- 3------ 3---------------- 5|---- 5--------------------------|
A|--------------------------------|------ 6------ 5----------------|
E|------ 5------ 3-------- 1---- 0|---------------------- 8--------|
Classical Guitar Tablature http://classicalguitartablature.blogspot.com/
E| 8------------ 5----------------|--------------------------------|
B| 5------------ 6---- 8------ 8--| 5--------------10-- 8-- 6 3----|
G|------ 5------ 5---- 5--10------| 5---------- 5-- 8-- 8-- 8 3----|
D|-- 5---------------- 7--10------| 5-- 5------ 5-- 8-- 8-- 7 3----|
A|------------------------------ 7|-------- 5----------------------|
E| 6---------- 5---------- 8------|-------------- 8-------- 7---- 6|
Classical Guitar Tablature http://classicalguitartablature.blogspot.com/
E|---------------- 5-- 3-- 1------|-------- 5------ 6------10------|
B|---------------- 3-- 3 3--------| 8------ 6------ 3------10------|
G|---- 3------ 5 3---- 3-- 3 3----| 5---- 6---- 6-- 3-- 3 9---- 9 7|
D|---- 3------ 3---------------- 5|---- 5--------------------------|
A|--------------------------------|------ 6------ 5-------------- 8|
E|------ 5------ 3-------- 1---- 0|---------------------- 8--------|
Classical Guitar Tablature http://classicalguitartablature.blogspot.com/
E| 8------------------------------|---- 8--------------------------|
B| 8--------------1011--10-- 8----|---- 5-------- 6----------------|
G|------------ 5-- 9------ 9 5----|---- 5---- 5-- 8------ 8-- 6----|
D|---- 7------ 710--------10 5----|---------- 5------ 8-- 7-- 5----|
A|------------------------ 8---- 7|-------- 5----------------------|
E|-------- 5---- 8----------------|-------------- 8------ 7-- 5-- 6|
Classical Guitar Tablature http://classicalguitartablature.blogspot.com/
E|--------------------------------|--------------------------------|
B|------------10--10--11--10--10--|---- 8------ 8------------------|
G|-- 7--------10--10------10--10--|---- 7------ 5-- 5---- 3------ 2|
D|-- 7-------- 8-- 8------ 8-- 8--|---- 8------ 5-- 5-- 3-- 3-- 1--|
A|--------------------------------|--------------------------------|
E|------ 8--------10------ 9------| 8------ 6------ 5-- 4-- 3-- 2--|
Classical Guitar Tablature http://classicalguitartablature.blogspot.com/
E|-------- 5-- 5------------------|---- 8--------------------------|
B|-------- 6-- 6--1011--10-- 8----|---- 5-------- 6----------------|
G|------ 5---- 5-- 9------ 9 5----|---- 5---- 5-- 8------ 8-- 6----|
D|---- 2--------10--------10 5----|---------- 5------ 8-- 7-- 5----|
A|------------------------ 8---- 7|-------- 5----------------------|
E| 1---- 5------ 8----------------|-------------- 8------ 7-- 5-- 6|
Classical Guitar Tablature http://classicalguitartablature.blogspot.com/
E|--------------------------------|--------------------------------|
B|------------10--10--11--10--10--|---- 8------ 8---------------- 6|
G|-- 7--------10--10------10--10--|---- 7------ 5 5---- 4-- 3-- 5 7|
D|-- 7-------- 8-- 8------ 8-- 8--|---- 8------ 5 3---- 3-- 1-- 3--|
A|--------------------------------|--------------------------------|
E|------ 8--------10------ 9------| 8------ 6------ 5-- 4-- 3-- 5 6|
Classical Guitar Tablature http://classicalguitartablature.blogspot.com/
E|------------10--10------10-- 8--|--------------------------------|
B|------------10--10------10-- 8--|---- 8---------- 8--------------|
G|------------10--10------ 7-- 9--|---- 7------ 7-- 5------10------|
D|-- 7---------------- 8----------|---- 8------ 8------ 8------ 8--|
A|------------------------ 8------|10------ 7------ 5--------------|
E|------ 8--------10--------------|------------------------ 9------|
Classical Guitar Tablature http://classicalguitartablature.blogspot.com/
E|-------- 5-- 5-- 5-- 5 8--------|--------------------------------|
B|-------- 6-- 6-- 8-- 8 6---- 6--|-------------------- 6-- 8--10--|
G|---- 5-- 7-- 7 7---- 7 6---- 5--|------------ 3------ 7-- 7-- 7--|
D|---- 7---------------------- 3--|---- 3------ 5------ 7-- 7-- 7--|
A|------------------------ 6------| 5---- 4------------------------|
E| 8------ 7---- 6----------------|---------------- 8------ 7---- 6|
Classical Guitar Tablature http://classicalguitartablature.blogspot.com/
E| 6---------------- 5-- 6-- 5----| 3-- 3------ 5 3----------------|
B| 8---------------- 3-- 4-- 4----| 3-- 3------ 6-- 6-- 6 1--------|
G| 7-- 7------ 7---- 3-- 2---- 2--| 3-- 3------ 6-- 3-- 3-- 3-- 3--|
D|------------ 5------------------|-------------------- 3-- 3-- 2--|
A|--------------------------------|-------- 6------ 5-- 4-- 3------|
E|-------- 5---- 3------ 2--------| 1-- 0---------------------- 2--|
Classical Guitar Tablature http://classicalguitartablature.blogspot.com/
E| 1------------------------------|---------------------------- 8--|
B| 1------ 3-------------------- 6|------ 6------ 6------10---- 8--|
G| 2------ 3---- 6------------ 6--| 5---- 4------ 3-------- 8-- 6--|
D|---- 2 2---- 2------ 5------ 5--|---- 3------ 6 5-- 5---- 7------|
A|---------------------- 6--------| 5------ 4------ 3--------------|
E| 1---- 3------ 5----------------|------------------------ 7-- 5--|
Classical Guitar Tablature http://classicalguitartablature.blogspot.com/
E|10------10--10---------------- 8|------ 8-- 8------------ 8 6----|
B| 6------ 6--11---------- 6-- 6 5|------ 8-- 9------ 9---- 8 8--10|
G| 7-- 7-- 7--10------10-- 6------|-- 5-- 9-- 9------ 9-- 6-- 6-- 9|
D|--------------------10 5--------|--------------------------------|
A|---------------------- 6------ 7|--------10---- 9------ 7--------|
E| 6------ 8----10----------------|--------------------------------|
Classical Guitar Tablature http://classicalguitartablature.blogspot.com/
E|---------- 5------------ 8------|--------------------------------|
B|------10---- 8------ 8-- 6-- 6--|----------------------10--13----|
G|------ 7---- 7------ 7-- 6-- 5--|---- 5---- 3------ 8-- 8--10--10|
D|1010-- 8------------ 5------ 3--|---- 3------ 5---- 8--10--13----|
A| 8------ 7-------------- 6------| 5---- 4-------------- 8----1213|
E|-------------- 6----------------|-------------- 8----------------|
Classical Guitar Tablature http://classicalguitartablature.blogspot.com/
E|10----10----1010------------ 8--|------------------------ 3 5----|
B|10------10--1010------ 6---- 8--|---------- 8-------- 6-- 6------|
G|----10--10--1010--10-- 7---- 5--|---------- 5-------- 3 3--------|
D|---------------------- 8--------|-- 5------ 5-------- 7-------- 8|
A|--------12------10---- 8------ 7|------ 6------ 5------ 4--------|
E|--------------------------------|------------------------------ 8|
Classical Guitar Tablature http://classicalguitartablature.blogspot.com/
E|-------- 5------ 6-- 5----------|------ 5------ 5------ 3------ 1|
B|11------ 6------ 6-- 6------ 6--| 8---- 6-------- 3---- 3--------|
G|10---- 7---- 7-- 6-- 6------ 6--| 5---- 5---- 5 3---- 3 3-- 3-- 0|
D|---- 8------------------------ 5|---- 5--------------------------|
A|------------------------ 6------|------------------------ 3------|
E|------ 7-------- 6------------ 5|------ 4------ 3-------------- 1|
Classical Guitar Tablature http://classicalguitartablature.blogspot.com/
E|-- 1---------- 5----------------|--------------------------------|
B| 1------------ 6---- 8------ 8--| 5--------------10-- 8-- 6 3----|
G|-------------- 5---- 5--10------| 5---------- 5-- 8-- 8-- 8 3----|
D|------ 0------------ 7--10------| 5-- 5------ 5-- 8-- 8-- 7 3----|
A|------------------------------ 7|-------- 5----------------------|
E|------------ 5---------- 8------|-------------- 8-------- 7---- 6|
Classical Guitar Tablature http://classicalguitartablature.blogspot.com/
E|---------------- 5-- 3-- 1------|-------- 5------ 6------10------|
B|---------------- 3-- 3 3--------| 8------ 6------ 3------10------|
G|---- 3------ 5 3---- 3-- 3 3----| 5---- 6---- 6-- 3-- 3 9---- 9--|
D|---- 3------ 3---------------- 5|---- 5--------------------------|
A|--------------------------------|------ 6------ 5----------------|
E|------ 5------ 3-------- 1---- 0|---------------------- 8--------|
Classical Guitar Tablature http://classicalguitartablature.blogspot.com/
E| 8------------ 5----------------|--------------------------------|
B| 5------------ 6---- 8------ 8--| 5--------------10-- 8-- 6 3----|
G|------ 5------ 5---- 5--10------| 5---------- 5-- 8-- 8-- 8 3----|
D|-- 5---------------- 7--10------| 5-- 5------ 5-- 8-- 8-- 7 3----|
A|------------------------------ 7|-------- 5----------------------|
E| 6---------- 5---------- 8------|-------------- 8-------- 7---- 6|
Classical Guitar Tablature http://classicalguitartablature.blogspot.com/
E|---------------- 5-- 3-- 1------|-------- 5-------- 6--------10--|
B|---------------- 3-- 3 3--------| 8------ 6-------- 3--------10--|
G|---- 3------ 5 3---- 3-- 3 3----| 5------ 6---- 6-- 3-------- 9--|
D|---- 3------ 3------------------| 5-- 5--------------------------|
A|------------------------------ 7|------ 6-------- 5---- 4--------|
E|------ 5------ 3-------- 1------|-------------------------- 8----|
Classical Guitar Tablature http://classicalguitartablature.blogspot.com/
E|---------------- 8--------------|--------------------------------|
B|-------------- 8----------------|--------------------------------|
G|-- 9---------- 7----------------|--------------------------------|
D|------------ 7------------------|--------------------------------|
A|---------- 8--------------------|--------------------------------|
E|--------------------------------|--------------------------------|

0 ความคิดเห็น:

แสดงความคิดเห็น