To celebrate the anniversary, I am giving you (finally...) : iPhone LickByNeck !!!!!!

是否 - 罗大佑- Yes Or No (Basic)

Classic Chinese tune fingerstyle solo guitar arrangement played in the key of C.
http://classicalguitartablature.blogspot.com/
You need to install the Flash plugin - http://www.webestools.com/

http://classicalguitartablature.blogspot.com/
Shi Fou - Yes Or No - BASIC Arrangement played in the key of C.
http://classicalguitartablature.blogspot.com/
E| 3-------- 3 1---------- 3-- 6--| 5------------------------------|
B| 0-- 0---------- 5-- 6-- 5-- 5--| 6------ 8------ 6--------------|
G| 0-- 0---------- 6-- 6-- 3-- 3--| 5------ 6------ 5------ 5------|
D|-------- 0------ 5-- 5----------|---- 7-- 8-- 8-- 7-- 7------ 7--|
A|---------------- 0------ 4------| 5------ 7------ 8--------------|
E| 0------------------------------|--------------------------------|
http://classicalguitartablature.blogspot.com/
E|--------------------------------|--------------------------------|
B| 3-- 3-- 3-- 1-- 0---------- 3--| 1---------- 1-------------- 3--|
G| 2-- 2-- 2-- 2-- 0---------- 0--|-------- 1-------------- 0------|
D| 2-- 2-- 2-- 2-- 0-- 0------ 0--|---- 1-------------- 3----------|
A|------------------------ 2------| 1-------------- 2--------------|
E| 2-------------- 3--------------|--------------------------------|
http://classicalguitartablature.blogspot.com/
E| 0-------- 0------------ 0------|--------------------------------|
B| 1-- 1---- 1-- 3 1-- 3------ 1--|------------ 5---------- 5------|
G| 0-- 0-------- 0 0-- 0----------| 7------ 7------------ 7---- 7--|
D|-------- 2---------- 2----------|---- 7---------- 7--------------|
A| 3------------------------------| 5------------------------------|
E|--------------------------------|--------------------------------|
http://classicalguitartablature.blogspot.com/
E| 1-------- 1-- 0------------ 5--| 3------------------------------|
B| 1------------------ 5-- 6------| 3---------- 3------------------|
G| 2-- 2---------- 7------ 7------| 5------ 5------ 4---------- 0--|
D|-------- 3------ 7--------------|---- 3-------------- 3------ 0--|
A|--------------------------------|--------------------------------|
E| 1-------------- 5--------------| 3-------------- 3------ 1------|
http://classicalguitartablature.blogspot.com/
E| 3-------- 3 1---------- 3-- 6--| 5------------------------------|
B| 0-- 0---------- 5-- 6-- 5-- 5--| 6------ 8------ 6--------------|
G| 0-- 0---------- 6-- 6-- 3-- 3--| 5------ 6------ 5------ 5------|
D|-------- 0------ 5-- 5----------|---- 7-- 8-- 8-- 7-- 7------ 7--|
A|---------------- 0------ 4------| 5------ 7------ 8--------------|
E| 0------------------------------|--------------------------------|
http://classicalguitartablature.blogspot.com/
E|--------------------------------|--------------------------------|
B| 3-- 3-- 3-- 1------------------| 3---------- 3-- 3------ 4------|
G| 2-- 2-- 2-- 2-- 4------ 4-- 5--| 2------ 2------ 1------ 4------|
D| 2-- 2-- 2-- 2-- 3-- 3----------|---- 3-------- 3-------- 3------|
A|--------------------------------|---------------------- 4--------|
E| 2-------------- 4--------------| 3------------ 3----------------|
http://classicalguitartablature.blogspot.com/
E| 0-------- 0------------ 0------|--------------------------------|
B| 1-- 1---- 1-- 3 1-- 3------ 1--|------------ 5---------- 5------|
G| 0-- 0-------- 0 0-- 0----------| 7------ 7------------ 7---- 7--|
D|-------- 2---------- 2----------|---- 7---------- 7--------------|
A| 3------------------------------| 5------------------------------|
E|--------------------------------|--------------------------------|
http://classicalguitartablature.blogspot.com/
E| 1-------- 1-- 0------------ 5--| 3------------------------------|
B| 1------------------ 5-- 6------| 3---------- 3------------------|
G| 2-- 2---------- 7------ 7------| 5------ 5------ 4---------- 0--|
D|-------- 3------ 7--------------|---- 3-------------- 3------ 0--|
A|--------------------------------|--------------------------------|
E| 1-------------- 5--------------| 3-------------- 3------ 1------|
http://classicalguitartablature.blogspot.com/
E| 3-------- 3 1---------- 3-- 6--| 5------------------------------|
B| 0-- 0---------- 5-- 6-- 5-- 5--| 6------ 8------ 6--------------|
G| 0-- 0---------- 6-- 6-- 3-- 3--| 5------ 6------ 5------ 5------|
D|-------- 0------ 5-- 5----------|---- 7-- 8-- 8-- 7-- 7------ 7--|
A|---------------- 0------ 4------| 5------ 7------ 8--------------|
E| 0------------------------------|--------------------------------|
http://classicalguitartablature.blogspot.com/
E|--------------------------------|--------------------------------|
B| 3-- 3-- 3-- 1-- 0---------- 3--| 1---------- 1 1----------------|
G| 2-- 2-- 2-- 2-- 0---------- 0--| 0------ 0------ 3-- 3------ 3--|
D| 2-- 2-- 2-- 2-- 0-- 0------ 0--|---- 2------------ 3------ 2----|
A|------------------------ 2------| 3------------------------------|
E| 2-------------- 3--------------|---------------- 3------ 2------|
http://classicalguitartablature.blogspot.com/
E| 8-------- 8-- 7---- 7-- 8------| 7--------10---------------- 7--|
B|10--------10--1010------10--10--| 8-------- 8---- 8--------------|
G|10--10----------10--------------|-------- 7------ 7------ 9------|
D|--------------------------------|---- 9-------------- 9----------|
A| 8------ 8-------------- 8------| 7---------------------- 7------|
E|--------------------------------|--------------------------------|
http://classicalguitartablature.blogspot.com/
E| 5------------------ 5-- 3------| 0------------------------------|
B| 6-- 6---- 6 5-- 3-- 3-- 3-- 3--| 1------ 1----------------------|
G| 5-- 5---- 5 5-- 4-- 4-- 2-- 2--| 0---- 0-- 0---------- 3---- 3--|
D|-------- 7------ 3--------------|-- 2---------- 2-- 3------ 2----|
A| 5-------------- 4------ 2------| 3------------------------------|
E|--------------------------------|---------------- 3------ 2------|
http://classicalguitartablature.blogspot.com/
E| 8-------- 8 7---- 7-- 8--------| 7----------10-------------- 7--|
B|10--------10----10----------10--| 8---------- 8-- 8------10------|
G|10--10--------------------------| 7------ 7------ 7------ 7------|
D|--------------------------------|---- 9-------------- 9----------|
A| 8------------------------------| 7------------------------------|
E|--------------------------------|--------------------------------|
http://classicalguitartablature.blogspot.com/
E| 8-- 7-- 5 5 7-- 8------ 7-- 8--|10--------------11--------------|
B| 6-- 6-- 5-- 5--1010--1010--10--|10----------10--------------11--|
G| 5-- 5-- 5 5 5-- 9------ 9-- 9--|10------10--------------10------|
D|--------------------------------|----10-------------- 9----------|
A| 5------ 7------ 8------ 9----10|--------------------------------|
E|--------------------------------|-------------- 9----------------|
http://classicalguitartablature.blogspot.com/
E| 0-------- 0------------ 0------|--------------------------------|
B| 1-- 1---- 1-- 3 1-- 3------ 1--|------------ 5---------- 5------|
G| 0-- 0-------- 0 0-- 0----------| 7------ 7------------ 7---- 7--|
D|-------- 2---------- 2----------|---- 7---------- 7--------------|
A| 3------------------------------| 5------------------------------|
E|--------------------------------|--------------------------------|
http://classicalguitartablature.blogspot.com/
E| 1-------- 1-- 0------------ 5--| 3------------------------------|
B| 1------------------ 5-- 6------| 3---------- 3------------------|
G| 2-- 2---------- 7------ 7------| 5------ 5------ 4---------- 0--|
D|-------- 3------ 7--------------|---- 3-------------- 3------ 0--|
A|--------------------------------|--------------------------------|
E| 1-------------- 5--------------| 3-------------- 3------ 1------|
http://classicalguitartablature.blogspot.com/
E| 3-------- 3 1---------- 3-- 6--| 5------------------------------|
B| 0-- 0---------- 5-- 6-- 5-- 5--| 6------ 8------ 6--------------|
G| 0-- 0---------- 6-- 6-- 3-- 3--| 5------ 6------ 5------ 5------|
D|-------- 0------ 5-- 5----------|---- 7-- 8-- 8-- 7-- 7------ 7--|
A|---------------- 0------ 4------| 5------ 7------ 8--------------|
E| 0------------------------------|--------------------------------|
http://classicalguitartablature.blogspot.com/
E|--------------------------------|--------------------------------|
B| 3-- 3-- 3-- 1-- 0---------- 3--| 1------------------------------|
G| 2-- 2-- 2-- 2-- 0---------- 0--| 0------ 0---------- 0------ 0--|
D| 2-- 2-- 2-- 2-- 0-- 0------ 0--|---- 2------ 2---- 0------ 0----|
A|------------------------ 2------| 3------------------------------|
E| 2-------------- 3--------------|---------------- 3------ 1------|
http://classicalguitartablature.blogspot.com/
E| 3-------- 3 1---------- 3-- 6--| 5------------------------------|
B| 0-- 0---------- 5-- 6-- 5-- 5--| 6------ 8------ 6--------------|
G| 0-- 0---------- 6-- 6-- 3-- 3--| 5------ 6------ 5------ 5------|
D|-------- 0------ 5-- 5----------|---- 7-- 8-- 8-- 7-- 7------ 7--|
A|---------------- 0------ 4------| 5------ 7------ 8--------------|
E| 0------------------------------|--------------------------------|
http://classicalguitartablature.blogspot.com/
E|--------------------------------|--------------------------------|
B| 3-- 3-- 3-- 1-- 0---------- 3--| 1---------- 1---------- 3------|
G| 2-- 2-- 2-- 2-- 0---------- 0--| 1------ 1-------------- 2------|
D| 2-- 2-- 2-- 2-- 0-- 0------ 0--|---- 1-------------- 1-- 3-- 3--|
A|------------------------ 2------| 1-------------- 1------ 2------|
E| 2-------------- 3--------------|--------------------------------|
http://classicalguitartablature.blogspot.com/
E|--------------------------------|--------------------------------|
B| 5------------------------------|--------------------------------|
G| 4------------------------------|--------------------------------|
D| 5------------------------------|--------------------------------|
A| 3------------------------------|--------------------------------|
E|--------------------------------|--------------------------------|
http://classicalguitartablature.blogspot.com/

0 ความคิดเห็น:

แสดงความคิดเห็น