To celebrate the anniversary, I am giving you (finally...) : iPhone LickByNeck !!!!!!

Yi WU Suo You / I Have Nothing

Chinese Rock Anthem fingerstyle solo guitar arrangement played in the key of A. The first Chinese rock tune, written by Chinese rock godfather - Cui Jian.

You need to install the Flash plugin - http://www.webestools.com/

Yi Wu Suo You played in the key of A.
Classical Guitar Tablature http://classicalguitartablature.blogspot.com/
E| 0------------------------------|--------------------------------|
B| 1---- 3------ 7----------------|------------------------------ 3|
G| 2---- 2------ 6------ 4---- 2 2|-------------- 2-------------- 4|
D|---- 3------ 2------ 7 4--------|---- 2------ 2------ 0------ 2--|
A|-------------- 6------ 5------ 4|-------- 3------ 2---- 1--------|
E| 1------ 0----------------------|------------------------------ 5|
Classical Guitar Tablature http://classicalguitartablature.blogspot.com/
E|--------------------------------|--------------------------------|
B|------ 3------ 0----------------|------------------------------ 5|
G|------ 4------ 2-- 2-- 2------ 2|-------------- 2------ 2---- 1--|
D|---- 4---- 4-- 3------ 0--------|---- 2-------- 4------ 3---- 3--|
A|--------------------------------|-------------- 6---- 4 2---- 1--|
E|------ 4------ 3------ 2---- 1 0|--------------------------------|
Classical Guitar Tablature http://classicalguitartablature.blogspot.com/
E|---------- 3------ 3-- 5------ 5|--------------------------------|
B|---- 5------ 2------ 2 5------ 5|------------ 7---------------- 7|
G| 4-- 4------ 2------ 2 3--------|---- 6------ 6-- 4---------- 4 7|
D| 4-- 4---------------------- 2--|-------------------- 6------ 4--|
A|--------------------------------|-------- 6------ 5------ 4------|
E| 5---- 4------ 3------ 2------ 0|--------------------------------|
Classical Guitar Tablature http://classicalguitartablature.blogspot.com/
E|---------------------- 0--------|--------------------------------|
B|---- 7------ 7 7-- 5-- 5------ 5|--------------------------------|
G|---- 7------ 7 7---- 7 5------ 6|------------ 6 7------------ 8--|
D| 7---------- 7 6---------- 4----|---- 7------ 5------ 7------ 7--|
A|--------------------------------|--------------------------------|
E| 8------ 7---- 6-------- 4---- 5|-------- 6------ 7------ 8------|
Classical Guitar Tablature http://classicalguitartablature.blogspot.com/
E|--------------------------------|------------------------------ 0|
B| 5-- 5------ 5-- 5------ 8------|------------------------------ 1|
G| 4-- 4 3---- 3-- 2------ 7------| 2---------------------------- 2|
D| 5-- 5------ 5------ 4------ 6--|---- 5-- 2---------- 2------ 2--|
A| 4------ 3------ 2--------------|--------------------------------|
E|------------------------ 6------| 5------ 4-- 4-- 3------ 2------|
Classical Guitar Tablature http://classicalguitartablature.blogspot.com/
E|--------------------------------|--------------------------------|
B|------ 3------------------------|------------------------------ 8|
G|------ 2------ 4------ 2------ 2|------------ 2------ 2------ 2--|
D|---- 2------ 2------ 7------ 4--|---- 2------ 1------ 0------ 0--|
A|-------------- 6-------- 5------| 4---- 3-------- 2---- 1--------|
E| 1---- 0------------------------|--------------------------------|
Classical Guitar Tablature http://classicalguitartablature.blogspot.com/
E|--------------------------------|--------------------------------|
B|---- 8-- 8-- 7 8---- 7 8---- 7 5|------------------------------10|
G| 6-- 6-- 7-- 7 9---- 9 5---- 7 5|------------ 4 2------------ 2--|
D| 5-- 5-- 6-- 6 7---- 7 7---- 7--|---- 4------ 2------ 1------ 1--|
A|---------------------- 6--------|-------------- 0------ 2--------|
E| 5------ 7------ 9---------- 0 2|-------- 3----------------------|
Classical Guitar Tablature http://classicalguitartablature.blogspot.com/
E|---------------------- 0--------|--------------------------------|
B|----10----10-- 7---- 5 1------ 5|---------------- 5--------------|
G| 9--10----10-- 6---- 6 2------ 5|---------------- 6-- 6-- 7-- 8--|
D| 8-- 9---- 9-- 7------------ 2--|---- 4------ 4------ 5-- 7-- 7--|
A|-------------- 6----------------|--------------------------------|
E| 8---- 9----10------ 0 1------ 2|-------- 4------ 5-- 6-- 7-- 8--|
Classical Guitar Tablature http://classicalguitartablature.blogspot.com/
E|--------------------------------|------------------------------ 0|
B| 5-- 5------ 5-- 5------ 8------|------------------------------ 1|
G| 4-- 4 3---- 3-- 2------ 7------| 2---------------------------- 2|
D| 5-- 5------ 5------ 4------ 6--|---- 5-- 2---------- 2------ 2--|
A| 4------ 3------ 2--------------|--------------------------------|
E|------------------------ 6------| 5------ 4-- 4-- 3------ 2------|
Classical Guitar Tablature http://classicalguitartablature.blogspot.com/
E|--------------------------------|--------------------------------|
B|------ 3------------------------|------------------------------ 5|
G|------ 2------ 4------ 2------ 2|------------ 2------ 2------ 2 2|
D|---- 2------ 2------ 7------ 4--|---- 2------ 1------ 0------ 0--|
A|-------------- 6-------- 5------| 4---- 3-------- 2---- 1------ 2|
E| 1---- 0------------------------|--------------------------------|
Classical Guitar Tablature http://classicalguitartablature.blogspot.com/
E|--------------------------------|--------------------------------|
B|------ 3-------- 7--------------|------------------------------ 3|
G|------ 0-------- 7---- 4------ 2|------------------------------ 2|
D|---- 4------ 2------ 7------ 2--|---- 3 2---- 2------ 0------ 2--|
A|------ 1------------------------|------------------------------ 5|
E|---------------- 5------ 4---- 3|-------- 2---- 1-------- 0------|
Classical Guitar Tablature http://classicalguitartablature.blogspot.com/
E|--------------------------------|--------------------------------|
B|-------------- 0------------ 3--| 5------------------------------|
G|------------ 4 2------------ 1--| 4-- 4------ 4-- 4--------------|
D|-- 4-------- 2------ 0------ 3--| 4---------- 4------ 3------ 2--|
A|------ 4------ 2------ 1--------|--------------------------------|
E|--------------------------------| 5------ 4------ 3------ 2------|
Classical Guitar Tablature http://classicalguitartablature.blogspot.com/
E| 0------------------------------|--------------------------------|
B| 1---- 3------ 7----------------|------------------------------ 3|
G| 2---- 2------ 6------ 4---- 2 2|-------------- 2-------------- 4|
D|---- 3------ 2------ 7 4--------|---- 2------ 2------ 0------ 2--|
A|-------------- 6------ 5------ 4|-------- 3------ 2---- 1--------|
E| 1------ 0----------------------|------------------------------ 5|
Classical Guitar Tablature http://classicalguitartablature.blogspot.com/
E|--------------------------------|--------------------------------|
B|------ 3------ 0----------------|--------------------------------|
G|------ 4------ 2-- 2-- 2------ 2|---------------- 2-- 2----------|
D|---- 4---- 4-- 3------ 0--------|---- 2---------- 4-- 3----------|
A|--------------------------------|---------------- 6-- 5----------|
E|------ 4------ 3------ 2---- 1 0|--------------------------------|
Classical Guitar Tablature http://classicalguitartablature.blogspot.com/
E|--------------------------------|--------------------------------|
B|--------------------------------|--------------------------------|
G| 2-- 2-------- 2---- 2----------| 2------------------------------|
D| 2-- 4-------- 0---- 0----------| 2------------------------------|
A| 4-- 3-------- 2---- 1----------| 0------------------------------|
E|--------------------------------|--------------------------------|
Classical Guitar Tablature http://classicalguitartablature.blogspot.com/

0 ความคิดเห็น:

แสดงความคิดเห็น