To celebrate the anniversary, I am giving you (finally...) : iPhone LickByNeck !!!!!!

You Are So Beautiful

Joe Cocker's hit fingerstyle chord melody guitar arrangement played in the key of F.
http://classicalguitartablature.blogspot.com/

http://classicalguitartablature.blogspot.com/
You Are So Beautiful played in the key of F.
http://classicalguitartablature.blogspot.com/
E|--------------------------------|------------------------ 1------|
B| 6------ 6------ 6------ 6------| 6------ 6------ 6------ 2------|
G| 4-- 4-- 3-- 3-- 5-- 5-- 7-- 7--| 7-- 7-- 5-- 5-- 5-- 5-- 3-- 3--|
D|-- 7------ 5------ 7------ 7----|-- 5------ 5------ 4------ 3----|
A| 5------ 4----------------------|--------------------------------|
E|---------------- 8------ 7------| 6------ 5------ 4------ 3------|
http://classicalguitartablature.blogspot.com/
E|------ 5---------------------- 5|--------------------------------|
B| 6---- 6--------10------10---- 6|-- 8 6-------- 6---- 6------ 110|
G| 5---------- 6--10------ 8-- 8--| 5-- 5---- 5-- 6-- 6------ 3----|
D|-- 7------------ 8------ 8-- 7--|------ 5-- 5---- 5-------- 1----|
A| 8------ 6----------------------|------------------------------ 8|
E|----------------10-- 9-- 8-- 7--| 6------ 5---- 3------ 2--------|
http://classicalguitartablature.blogspot.com/
E|--------------------------------|--------------------------------|
B|-------- 8-------------- 6---- 6| 6---- 6---- 6-- 5-- 6-- 8-- 9--|
G| 7------ 6------ 5---- 5---- 3--| 5-- 5---- 5---- 7-- 7-- 5------|
D|---- 7------ 7------ 8---- 7----|-- 6------ 6---- 7-- 7 5--------|
A|-------- 7------ 6------ 5------| 4------ 3----------------------|
E|--------------------------------|-------------- 7------ 6--------|
http://classicalguitartablature.blogspot.com/
E|-------- 5-------------- 5------|------------------------------ 5|
B| 6------ 6------10------ 8-- 8--|10 8 6------ 6---------------- 6|
G| 5------ 6-- 6-- 7------ 5 5----|1010-- 6-- 6-- 7------------ 5 7|
D| 5-- 5---------- 7-- 7---- 8----| 8---- 8 8-------- 7-------- 5--|
A|---------------- 8------ 6------|--------------------------------|
E| 5------ 3----------------------|10---- 9------ 8-------- 6------|
http://classicalguitartablature.blogspot.com/
E|--------------------------------| 8---------- 8---------- 8-- 9--|
B|-------------------- 310----11--| 8---------- 6--10--11-- 8-- 9--|
G|------ 7---- 4------ 3 8---- 8--| 7-- 7------ 6--10--10---- 8 8--|
D|-- 7------ 3------ 2--10----10--|-- 8------ 6------10-- 9---- 7--|
A|------------------------ 9-- 8--| 7------ 6----------------------|
E| 7------ 5------ 3--------------|----------------10-- 9-- 8-- 7--|
http://classicalguitartablature.blogspot.com/
E|----------------10--10--10--12--|--------------------------------|
B| 6---- 6---- 6--11--11--10--11--|10----10---------------------- 5|
G| 5-- 5---- 5----10------ 8 810--| 7-- 7-------- 9 9------ 7---- 6|
D|-- 5------ 5------12------------|-- 8------ 8------ 7------ 5----|
A|----------------10------ 9-- 8--| 7------------------------------|
E| 6------ 5----------------------|--------10------ 9-- 8-- 7-- 6 5|
http://classicalguitartablature.blogspot.com/
E|------------ 513----1210--------| 5------------------------------|
B|---- 5------ 210----1013----13--| 6 8-- 6------ 6------ 6--------|
G|-- 6------ 2 21212----12----12--| 5 5-- 3---- 3------ 3---- 7----|
D| 5------ 2----------------10--10|-- 7-- 5-- 5------ 5---------- 7|
A|------------------------------ 5|-------- 4------ 3--------------|
E|------ 3-------- 0----11--------|---------------------- 7--------|
http://classicalguitartablature.blogspot.com/
E|-------- 5---- 5----------------| 5 3------------------ 3--------|
B|-------- 6---- 6------10--------| 3 3 6------ 6 3---- 3 3---- 3--|
G| 7------ 7------ 5---- 9--------| 3 3 5---- 5------ 2------ 3----|
D|---- 5------ 7------ 7 8---- 8--|-------- 5------ 3------ 3------|
A|--------------------------------| 5---- 6------------------------|
E| 6------ 7------ 8------ 9------|-------------- 1------ 4------ 5|
http://classicalguitartablature.blogspot.com/
E|-------- 5-------------- 8------| 5------------------------------|
B|---- 4-- 8---- 810--10--11----11| 6-- 8 6------------------------|
G|-- 5-------- 7-- 8-- 8------10--| 5-- 5 3---- 3------ 3------ 7--|
D|-- 5------ 5------ 7------ 8----|-- 7 7 5-- 5------ 5------ 7----|
A|--------------------------------| 5------ 4---- 3----------------|
E|-------- 6------ 8------ 9------|------------------------ 7------|
http://classicalguitartablature.blogspot.com/
E|-------- 5------ 5------ 5------|--------------------------------|
B|-------- 6------ 6------ 3------|10-- 8-------- 5----------------|
G|---- 7-- 5------ 5-- 5-- 3------| 8-- 8-------- 5---------- 5----|
D|-- 5-------- 5-------------- 3--|10---- 8-- 8-- 5---- 5---- 5----|
A|------------------------------ 9|-------- 8------ 7---- 6--------|
E| 6------ 5------ 4------ 3------|--------------------------------|
http://classicalguitartablature.blogspot.com/
E|--------------------------------|------------------------ 1------|
B| 6------ 6------ 6------ 6------| 6------ 6------ 6------ 2------|
G| 4-- 4-- 3-- 3-- 5-- 5-- 7-- 7--| 7-- 7-- 5-- 5-- 5-- 5-- 3-- 3--|
D|-- 7------ 5------ 7------ 7----|-- 5------ 5------ 4------ 3----|
A| 5------ 4----------------------|--------------------------------|
E|---------------- 8------ 7------| 6------ 5------ 4------ 3------|
http://classicalguitartablature.blogspot.com/
E| 1------ 1----------------------|--------------------------------|
B| 4------ 1----------------------|--------------------------------|
G| 3-- 3-- 0----------------------|--------------------------------|
D|-- 1----------------------------|--------------------------------|
A|--------------------------------|--------------------------------|
E| 2------ 1----------------------|--------------------------------|
http://classicalguitartablature.blogspot.com/

0 ความคิดเห็น:

แสดงความคิดเห็น