To celebrate the anniversary, I am giving you (finally...) : iPhone LickByNeck !!!!!!

You Needed Me

A beautiful Anne Murray's ballad fingerstyle solo guitar arrangement played in the key of C.

You Needed Me played in the key of C.
http://classicalguitartablature.blogspot.com/
E| 8 3-- 3------------------------|--------------------------------|
B| 8 6-- 6-- 5-- 5-- 3-- 3-- 1-- 5|-- 3---- 3---------------- 5----|
G| 9 5---- 5 5-- 7-- 4-- 2-- 2-- 5|-- 1---- 2---- 0-- 2-------- 2--|
D|-- 3---- 3 6-- 6-- 3-- 2-- 2-- 4|-- 3---- 4---- 2-- 0-------- 2--|
A|10------------------ 5----------|-- 2---- 3-- 5------------------|
E|-- 4---- 5-- 6-- 7------ 0 3-- 5|---------------- 0-- 1-- 2-- 3--|
http://classicalguitartablature.blogspot.com/
E|--------------------------------|---------------------------- 3--|
B| 5 3-- 3------------------ 3----| 3 1-- 1-------------------- 0--|
G| 5 0-- 2---- 3-- 5 6-- 2-- 2-- 0|------ 2---------- 0-- 0---- 0--|
D| 3 3---- 3-- 5-- 3 5-- 0-- 2-- 2|---------- 3------ 0---- 0------|
A|-- 2---- 3-- 4-- 5--------------|------ 0------ 1------ 2--------|
E| 5------------------ 0 1-- 2-- 3|--------------------------------|
http://classicalguitartablature.blogspot.com/
http://classicalguitartablature.blogspot.com/
E|---------------------------- 3 1|-------------------------- 1----|
B| 8-------------------------- 2--| 1------------------------ 1----|
G| 5-- 5------ 7---------- 0-- 3--| 2-- 2------ 0---- 0-- 0-- 0----|
D| 5-- 5------ 5---- 5---- 3------|-- 3-------- 2---- 3---- 3------|
A|--------------------------------|---------------- 5---- 3--------|
E| 8------ 7------ 5------ 3-- 2--| 1------ 0----------------------|
http://classicalguitartablature.blogspot.com/
E| 1------------------------ 1----|-------------------------- 3----|
B| 3------------------------ 0----| 5------------------------ 1----|
G| 0---- 0 2-- 2 0---- 0 0--------| 5-- 5---- 5------ 0-- 0-- 0----|
D|---- 3------ 3---- 3-- 0--------| 5 5------ 3------ 2-- 2--------|
A| 2------ 0----------------------|------ 5------ 4------ 3--------|
E|-------------- 3------ 1--------| 0------------------------------|
http://classicalguitartablature.blogspot.com/
E|-------------------------- 6-- 6|-- 5---- 5------------------ 5--|
B| 8---------------------- 1-- 2 6|-- 5---- 3-- 5------ 1-- 1-- 2--|
G| 7---- 7---- 7---- 5---- 3-- 3--| 7 5---- 5 3---- 2-- 1-- 2-- 2--|
D| 5-- 5------ 5-- 3-- 3-- 3------|---------------- 3-- 1-- 3-- 2--|
A|--------------------------------| 8-- 7-- 5-- 4-- 3-- 1-- 0------|
E| 7------ 6------ 5-- 4-- 3-- 2--|---------------------------- 3--|
http://classicalguitartablature.blogspot.com/
E| 5------------------------ 8-- 8|-- 7-- 7---------- 5-- 5---- 5--|
B| 3---------------- 3------ 7-- 8|--10-- 6-- 5------ 5-- 6---- 8--|
G| 2-- 2------ 2---- 5-- 7-- 7-- 7|-- 9-- 7-- 6-- 0-- 4-- 5---- 7--|
D|---- 4------ 2---- 4-- 7--------|-------------- 0---- 3 7---- 5--|
A|-------------- 5----------------|------ 5------------------------|
E| 2------ 0-------------- 8---- 7|-- 8------ 0---- 1-- 3-- 5-- 7--|
http://classicalguitartablature.blogspot.com/
E|--------------------------------|---------------------------- 3 1|
B|10-- 8-- 8---- 0---------- 8----| 8-------------------------- 2--|
G|10-- 9--10 6-- 0-- 0-- 0-- 7----| 5-- 5------ 7---------- 0-- 3--|
D|10-- 8--10 5---- 0 3-- 2-- 7----| 5-- 5------ 5---- 5---- 3------|
A|------------------------ 0------|--------------------------------|
E| 8-- 9--10-- 0-- 1 3------ 7----| 8------ 7------ 5------ 3-- 2--|
http://classicalguitartablature.blogspot.com/
E|-------------------------- 1----| 1------------------------ 1----|
B| 1------------------------ 1----| 3------------------------ 0----|
G| 2-- 2------ 0---- 0-- 0-- 0----| 0---- 0 2-- 2 0---- 0 0--------|
D|-- 3-------- 2---- 3---- 3------|---- 3------ 3---- 3-- 0--------|
A|---------------- 5---- 3--------| 2------ 0----------------------|
E| 1------ 0----------------------|-------------- 3------ 1--------|
http://classicalguitartablature.blogspot.com/
E|-------------------------- 3----|-------------------------- 6-- 6|
B| 5------------------------ 1----| 8---------------------- 1-- 2 6|
G| 5-- 5---- 5------ 0-- 0-- 0----| 7---- 7---- 7---- 5---- 3-- 3--|
D| 5 5------ 3------ 2-- 2--------| 5-- 5------ 5-- 3-- 3-- 3------|
A|------ 5------ 4------ 3--------|--------------------------------|
E| 0------------------------------| 7------ 6------ 5-- 4-- 3-- 2--|
http://classicalguitartablature.blogspot.com/
E|-- 5---- 5-------------------- 8|-- 3-- 3------------------------|
B|-- 5---- 3-- 5------------13-- 8|-- 6-- 6-- 5-- 5-- 3-- 3-- 1-- 5|
G| 7 5---- 5 3---- 2 7-- 5--10-- 9|-- 5---- 5 5-- 7-- 4-- 2-- 2-- 5|
D|---------------- 3 5-- 3--12----|-- 3---- 3 6-- 6-- 3-- 2-- 2-- 4|
A| 8-- 7-- 5-- 4-- 3----------1110|-------------------- 5----------|
E|------------------ 7---- 5------|-- 4---- 5-- 6-- 7------ 0 3-- 5|
http://classicalguitartablature.blogspot.com/
E|--------------------------------|--------------------------------|
B|---- 3-- 3---------------- 5----| 5 3-- 3------------------ 3----|
G|---- 1-- 2---- 0-- 2-------- 2--| 5 0-- 2---- 3-- 5 6-- 2-- 2-- 0|
D|---- 3-- 4---- 2-- 0-------- 2--| 3 3---- 3-- 5-- 3 5-- 0-- 2-- 2|
A|---- 2-- 3-- 5------------------|-- 2---- 3-- 4-- 5--------------|
E|---------------- 0-- 1-- 2-- 3--| 5------------------ 0 1-- 2-- 3|
http://classicalguitartablature.blogspot.com/
E|--------------------------------| 5-- 5-- 7 8---- 7-- 5-- 0------|
B| 3 1-- 1------------------ 5----| 5------ 6------ 5-- 5-- 1-- 1--|
G|------ 2---------- 2------ 4-- 5|-------- 4---- 5---- 5-- 2-- 2--|
D|---------- 2------ 2------ 4----|---------------------------- 2 3|
A|--------------------------------|--------------------------------|
E|------ 2------ 3------ 4------ 5|-------- 4---- 3------ 2------ 1|
http://classicalguitartablature.blogspot.com/
E|--------------------------------|-------------------------- 5-- 5|
B| 3-- 1-- 1---------------- 5----| 3-- 1-- 1---------------- 3-- 5|
G| 2-- 2-- 0-- 0-- 5---------- 5--| 0-- 1-- 2------ 2-------- 2-- 5|
D|---- 3 2---- 2---- 7-------- 7--| 0-- 1-- 3---------- 2----------|
A|---------------- 5--------------| 2-- 1-- 0----------------------|
E|------ 0---------------- 8------|------------ 3-- 2------ 1------|
http://classicalguitartablature.blogspot.com/
E|------ 3---------------------- 5|---- 5 7---- 8-- 7-- 5----------|
B|-- 8---- 6---------------- 5----| 5-- 5-- 5--10--10-- 5 5-- 1-- 3|
G|-- 6---- 5-- 3 2---------- 2----| 5-- 5-- 5-- 9-- 9-- 5 3-- 1-- 2|
D|-- 8-------- 5------ 4---- 3----|---------------------- 3-- 3-- 3|
A|-- 6---- 5-- 4-- 3---- 2--------|------------ 9-- 8-- 7 5-- 4-- 3|
E| 0------------------------------| 5-- 4-- 3----------------------|
http://classicalguitartablature.blogspot.com/
E|--------------------------------|-------------------------- 5-- 5|
B|-- 1-- 1------------------ 5-- 3|---- 1-- 1---------------- 7-- 5|
G|-- 1-- 2------ 2-- 0-- 5-- 3-- 2|---- 2-- 2---------- 5-- 5 5-- 4|
D|-- 1-- 3------ 3-- 2-- 3-- 5-- 4|---- 1-- 1 1-------- 6-- 7------|
A|-- 1-- 0-------------- 5-- 4-- 3|-------- 2----------------------|
E|---------- 3-- 1-- 0------------|---------------- 6---- 5------ 3|
http://classicalguitartablature.blogspot.com/
E|-- 3-- 3------------------ 3----|---------------------------- 3 1|
B|-- 5-- 3------------------ 4----| 8-------------------------- 2--|
G|-- 4-- 2-- 2-- 7------ 0-- 4----| 5-- 5------ 7---------- 0-- 3--|
D|-- 3---------- 5-- 5-- 3--------| 5-- 5------ 5---- 5---- 3------|
A|------------------ 6---- 5 4----|--------------------------------|
E|------ 1------ 0----------------| 8------ 7------ 5------ 3-- 2--|
http://classicalguitartablature.blogspot.com/
E|-------------------------- 1----| 1------------------------ 1----|
B| 1------------------------ 1----| 3------------------------ 0----|
G| 2-- 2------ 0---- 0-- 0-- 0----| 0---- 0 2-- 2 0---- 0 0--------|
D|-- 3-------- 2---- 3---- 3------|---- 3------ 3---- 3-- 0--------|
A|---------------- 5---- 3--------| 2------ 0----------------------|
E| 1------ 0----------------------|-------------- 3------ 1--------|
http://classicalguitartablature.blogspot.com/
E|-------------------------- 3----|-------------------------- 6-- 6|
B| 5------------------------ 1----| 8---------------------- 1-- 2 6|
G| 5-- 5---- 5------ 0-- 0-- 0----| 7---- 7---- 7---- 5---- 3-- 3--|
D| 5 5------ 3------ 2-- 2--------| 5-- 5------ 5-- 3-- 3-- 3------|
A|------ 5------ 4------ 3--------|--------------------------------|
E| 0------------------------------| 7------ 6------ 5-- 4-- 3-- 2--|
http://classicalguitartablature.blogspot.com/
E|-- 5---- 5-------------------- 8|-- 3-- 3------------------------|
B|-- 5---- 3-- 5------------13-- 8|-- 6-- 6-- 5-- 5-- 3-- 3-- 1-- 5|
G| 7 5---- 5 3---- 2 7-- 5--10-- 9|-- 5---- 5 5-- 7-- 4-- 2-- 2-- 5|
D|---------------- 3 5-- 3--12----|-- 3---- 3 6-- 6-- 3-- 2-- 2-- 4|
A| 8-- 7-- 5-- 4-- 3----------1110|-------------------- 5----------|
E|------------------ 7---- 5------|-- 4---- 5-- 6-- 7------ 0 3-- 5|
http://classicalguitartablature.blogspot.com/
E|--------------------------------|--------------------------------|
B|---- 3-- 3---------------- 5----| 5 3-- 3------------------ 3----|
G|---- 1-- 2---- 0-- 2-------- 2--| 5 0-- 2---- 3-- 5 6-- 2-- 2-- 0|
D|---- 3-- 4---- 2-- 0-------- 2--| 3 3---- 3-- 5-- 3 5-- 0-- 2-- 2|
A|---- 2-- 3-- 5------------------|-- 2---- 3-- 4-- 5--------------|
E|---------------- 0-- 1-- 2-- 3--| 5------------------ 0 1-- 2-- 3|
http://classicalguitartablature.blogspot.com/
E|--------------------------------|--------------------------------|
B| 3 1-- 1------------------ 5----| 5 3-- 3------------------ 3----|
G|------ 2---------- 2------ 4----| 5 0-- 2---- 3-- 5 6-- 2-- 2-- 0|
D|---------- 2------ 2------ 4----| 3 3---- 3-- 5-- 3 5-- 0-- 2-- 2|
A|--------------------------------|-- 2---- 3-- 4-- 5--------------|
E|------ 2------ 3------ 4--------| 5------------------ 0 1-- 2-- 3|
http://classicalguitartablature.blogspot.com/
E|--------------------------------|--------------------------------|
B| 3 1-- 1------------------ 5-- 5|---- 3-- 3---------------- 3-- 3|
G|------ 2---------- 2------ 4-- 5|---- 4-- 2 2---- 5------ 2 2-- 2|
D|---------- 2------ 2------ 4----| 3-- 3-- 2 1---- 5---- 3-- 3-- 3|
A|--------------------------------|---------------- 7 6---- 5-- 3--|
E|------ 2------ 3------ 4--------| 5-- 4-- 2-- 1------------------|
http://classicalguitartablature.blogspot.com/
E|--------------------------------|--------------------------------|
B|-- 1---- 1----------------------|--------------------------------|
G|-- 2---- 2----------------------|--------------------------------|
D|-- 1---- 2----------------------|--------------------------------|
A| 2-- 0--------------------------|--------------------------------|
E|------ 3------------------------|--------------------------------|
http://classicalguitartablature.blogspot.com/

0 ความคิดเห็น:

แสดงความคิดเห็น