To celebrate the anniversary, I am giving you (finally...) : iPhone LickByNeck !!!!!!

You've Got A Friend

Classic Carole King's tune fingerstyle solo guitar arrangement played in the key of Bb.

You've Got A Friend played in the key of Bb.
http://classicalguitartablature.blogspot.com/
E|--------------------------------|--------------------------------|
B|-------- 3---------- 3------ 4--|---- 4-------- 4-------- 4------|
G|-------- 3---------- 3------ 3--|-------------- 3-------- 3------|
D|-------- 3---------- 3------ 5--|---------- 5------------ 5------|
A|--------------------------------|--------------------------------|
E| 6---------- 6-- 6------ 6-- 6--|-------- 6---------- 6------ 6--|
http://classicalguitartablature.blogspot.com/
E|--------------------------------|--------------------------------|
B|------ 3------------ 3----------|-- 3---------------------- 3----|
G|------ 3------------ 3----------|---- 5-------- 5-- 3-- 5-- 3----|
D|------ 3------------ 3----------|---- 5-------- 4---------- 3----|
A|--------------------------------|------ 3-- 4-- 5----------------|
E| 6---------- 6-- 6---- 6---- 5--|------------------------------ 3|
http://classicalguitartablature.blogspot.com/
http://classicalguitartablature.blogspot.com/
E|--------------------------------|------------------------------ 6|
B|---------------------------- 4--|---- 3------------ 3------------|
G|------ 3------------ 7------ 5--|---- 5------------ 5------------|
D|------ 3------------ 5------ 5--|------------------ 4-------- 4--|
A|--------------------------------|-------- 3 4-- 5----------------|
E|-------------- 5-- 6------------| 5-------------------- 4------ 3|
http://classicalguitartablature.blogspot.com/
E|---------- 6-- 5-- 3------------|--------------------------------|
B|-------- 3---- 4-- 4------ 4----|------------------------ 3------|
G|---- 3-------- 5-------- 5------| 7---- 5-------- 3------ 1------|
D|--------------------------------|---- 5------ 3-- 3-- 3-- 3-- 3--|
A|--------------------------------|------------------------ 2------|
E|-------------- 5----------------| 6------ 5------ 3--------------|
http://classicalguitartablature.blogspot.com/
E|---------------------- 3-- 3----|-------------- 1-- 3------------|
B| 4---------- 4---- 4------ 6----|-- 6---------- 1---------- 3----|
G| 3---- 3------ 5----------------|-- 5-------- 5 3-------- 3-- 3--|
D|---- 5-------- 3----------------|---- 3------ 3-------------- 3--|
A| 3------------------------------|--------------------------------|
E|---------------- 6------------ 5|------ 3-------- 1------------ 6|
http://classicalguitartablature.blogspot.com/
E|--------------------------------|--------------------------------|
B|---------- 3--------------------|-------- 6------ 8--------------|
G|-------- 3------------ 3--------|-------- 7------ 7------ 7------|
D|-- 3-------------- 3------------|-- 8---------------- 8------ 5--|
A|-------------- 5------------ 5 8|---------------- 7--------------|
E|--------------------------------|------------------------ 6------|
http://classicalguitartablature.blogspot.com/
E|--------------------------------|------------------------------ 6|
B| 3-------------------- 4--------| 4-- 3---------------------- 3--|
G| 5---------- 7-- 7------ 6------| 5---------- 2------ 5------ 5--|
D|---- 5------ 5-- 7-- 7------ 5--| 4---------- 4------ 4------ 4--|
A|------------------------ 6------| 5------ 3----------------------|
E| 5------ 6------ 8--------------|---------------- 5------ 4---- 3|
http://classicalguitartablature.blogspot.com/
E|---------- 6-- 5-- 3------------|--------------------------------|
B|-------- 3---- 4-- 4------ 4----|------------------------ 3------|
G|---- 3-------- 5-------- 5------| 7---- 5-------- 3------ 1------|
D|--------------------------------|---- 5------ 3-- 3-- 3-- 3-- 3--|
A|--------------------------------|------------------------ 2------|
E|-------------- 5----------------| 6------ 5------ 3--------------|
http://classicalguitartablature.blogspot.com/
E|------------------ 3---------- 3|-------------------- 3----------|
B| 4-------- 4-- 4-------------- 6|-- 6------------ 6---- 3---- 1--|
G| 3------ 3---- 3---------- 3-- 5|-- 5------------ 3------ 3-- 3--|
D|---- 5-------- 5------ 5--------|---- 3---- 3---- 5---- 1---- 1--|
A| 3------------------------------|--------------------------------|
E|-------------- 6-------------- 5|-------- 4------ 3------ 2------|
http://classicalguitartablature.blogspot.com/
E|--------------------------------|---------------------------- 1--|
B|---------------------- 4--------|-------- 6---- 3---- 4------ 3--|
G|------ 3-------------- 3------ 5|-------- 5---- 3---- 2----------|
D|-- 1-------------- 1------------|-- 3---------- 1---- 4----------|
A|--------------------------------|-------------- 3---- 2------ 1--|
E| 1-------- 1-- 3---------- 3-- 5|------------ 5------------------|
http://classicalguitartablature.blogspot.com/
E|--------------------------------|--------------------------------|
B|-------- 3------ 3-- 4------ 6--|---- 6---------------------- 6--|
G|---- 2---------- 3-- 3------ 8--|---- 8---- 8-------- 7 8--------|
D| 3-------------- 3-- 3------ 6--|---- 6---- 6-------- 6 6--------|
A|------------ 3-- 5---------- 8--|---------------------- 7------ 6|
E|--------------------------------|------ 7------ 6----------------|
http://classicalguitartablature.blogspot.com/
E|---------------------------- 3--|---------------------------- 6--|
B| 8-- 8 8---- 9-- 8-- 6-- 4-- 6--|---- 6---------- 6------ 8------|
G| 7---- 7-------- 7-- 7-- 3-- 5--|---- 5------ 5-- 5------ 6------|
D| 8---- 8-------- 8-- 8-- 5------|---- 3------ 3-- 4-- 4-- 5------|
A|-------- 5----------------------|--------------------------------|
E|---------------- 8------ 6------| 5------ 3------ 4------ 5------|
http://classicalguitartablature.blogspot.com/
E|--------------------------------|--------------------------------|
B| 8-- 6-------------- 3----------|-------- 6---- 3-- 4---- 3------|
G| 7-- 7-------------- 3----------|-------- 7------ 3 3---- 5-- 4--|
D| 8-- 8-------------- 3----------|---- 8------ 8-- 5 5---- 3-- 3--|
A|-------- 3-- 4-- 5------ 6-- 7--| 8-------------- 7-- 6-- 5-- 4--|
E| 6------------------------------|--------------------------------|
http://classicalguitartablature.blogspot.com/
E|--------------------------------|--------------------------------|
B| 1------------------------------|--------------------------------|
G| 3------ 7------ 5--------------| 5---- 3------ 2-- 3-- 5--------|
D|---- 1-- 6-- 6-- 5-- 5----------| 3---- 1------ 1-- 1-- 3--------|
A| 3------------------------------|--------------------------------|
E|-------- 7------ 6------ 3-- 4--| 5 4---- 3 2-- 1-- 3-- 4---- 5--|
http://classicalguitartablature.blogspot.com/
E|-- 1----------------------------|--------------------------------|
B| 3 3---- 6-- 3-- 6------ 6-- 8--|---- 6---------------- 8------ 8|
G| 2 2---- 3-- 3------ 7-- 8-- 8--|---- 7------ 3-------- 8-- 7-- 7|
D| 3------ 3-- 3 8-------- 6-- 6--|---- 6------ 3-------- 6-- 6-- 8|
A| 1------ 5---- 8----------------|------------------ 8------ 7-- 6|
E|------------------------ 8------| 7------ 6---- 4----------------|
http://classicalguitartablature.blogspot.com/
E|-- 6-- 6---------- 8------------|--------------------------------|
B|-- 8-- 8-- 8--11--10--------11--|------------ 9------ 6-- 8------|
G|------ 7-- 7-- 8-- 7--------10--|---- 9------ 8------ 7-- 7------|
D|--------------10------------ 8--|---- 8------ 6------ 6-- 6------|
A|------ 7------ 8------ 9----10--|---- 9------ 8---------- 7------|
E|--------------------------------|-------------------- 6----------|
http://classicalguitartablature.blogspot.com/
E|10-- 8---------- 6--------------|--------------------------------|
B| 8-------------- 6 8-- 6------ 3|-- 1----------------------------|
G| 7-- 7-------- 5-- 5-- 5------ 3|-------- 3-------------- 5------|
D|---------------------- 5------ 1|---------- 1------ 3------ 3----|
A| 6------------ 5-------------- 3|--------------------------------|
E|--------------------------------|---------------- 5--------------|
http://classicalguitartablature.blogspot.com/
E|--------------------------------|--------------------------------|
B| 4-- 3-- 4-- 3-- 4--------------| 6-- 4-- 3-- 4-------- 4--------|
G| 3-- 3-- 1-- 1-- 5-- 7------ 7--| 6------ 3-- 3-------- 3--------|
D| 4-- 4-- 1------ 4---------- 6--| 4-- 4 4---- 4------ 2---- 2----|
A|---------------- 6--------------|--------------------------------|
E| 4------ 2------------ 8--------| 6------ 4------ 2--------------|
http://classicalguitartablature.blogspot.com/
E|-- 1-------- 3------------------|--------------------------------|
B| 3 3-- 3---- 3---- 6------------|---------------------- 6---- 6 8|
G| 3---- 3---- 3---- 3------ 7----|-- 7---- 8 8-- 8-- 8-- 7---- 7 7|
D| 3---- 1---------- 3------ 6----|-- 6---- 6 6-- 6-- 6-- 6---- 6 8|
A|--------------------------------|-------------- 8-- 8-- 7------ 6|
E| 1---- 2------ 3------ 4------ 6|-- 6---- 8 8--------------------|
http://classicalguitartablature.blogspot.com/
E|-- 6----------------------------|--------------------------------|
B|---------------------------- 6--|---- 4--------------------------|
G|---------- 7-- 3-- 3-- 3---- 5--|---- 5------ 5------ 8------ 5--|
D|---------- 8-- 5-- 5-- 5---- 4--|---- 4------ 4------ 6------ 4--|
A|------ 5------------------------|------------------------ 6------|
E|-------------- 6------ 3------ 4|-------- 6------ 8--------------|
http://classicalguitartablature.blogspot.com/
E|---- 3------ 5------ 6-------- 5|---- 3--------------------------|
B| 3-- 3------ 5------------ 6-- 4|---- 3---- 3------ 1------------|
G| 3------ 3-- 4-- 4------ 4---- 3|---- 3---- 3-------- 0 3--------|
D| 3------------------------------|-------- 3 5-------- 2 3-- 3----|
A| 5---------- 4---------------- 3|---- 5---- 6--------------------|
E|--------------------------------|-------------------- 0-- 1------|
http://classicalguitartablature.blogspot.com/
E|--------------------------------|---------------------------- 1--|
B| 3-- 6-- 8-- 3------ 1----------|------------ 2 3---- 4------ 3--|
G| 3-- 5-- 7-- 1------ 3-- 3------| 3---- 5---- 4 3---- 2----------|
D| 1-- 3-- 5------ 3-- 1-- 3-- 3--|---- 5 3---- 3 1---- 4----------|
A|------------ 2------ 3-- 5------| 6------ 5-- 4 3---- 2------ 1--|
E| 3-- 5-- 6----------------------|--------------------------------|
http://classicalguitartablature.blogspot.com/
E|--------------------------------|--------------------------------|
B|-------- 3------ 3-- 4------ 6--|---- 6---------------------- 6--|
G|---- 2---------- 3-- 3------ 8--|---- 8---- 8-------- 7 8--------|
D| 3-------------- 3-- 3------ 6--|---- 6---- 6-------- 6 6--------|
A|------------ 3-- 5---------- 8--|---------------------- 7------ 6|
E|--------------------------------|------ 7------ 6----------------|
http://classicalguitartablature.blogspot.com/
E|---------------------------- 3--|---------------------------- 6--|
B| 8-- 8 8---- 9-- 8-- 6-- 4-- 6--|---- 6---------- 6------ 8------|
G| 7---- 7-------- 7-- 7-- 3-- 5--|---- 5------ 5-- 5------ 6------|
D| 8---- 8-------- 8-- 8-- 5------|---- 3------ 3-- 4-- 4-- 5------|
A|-------- 5----------------------|--------------------------------|
E|---------------- 8------ 6------| 5------ 3------ 4------ 5------|
http://classicalguitartablature.blogspot.com/
E|--------------------------------|--------------------------------|
B| 8-- 6-------------- 3----------|-------- 6---- 3-- 4---- 3------|
G| 7-- 7-------------- 3----------|-------- 7------ 3 3---- 5-- 4--|
D| 8-- 8-------------- 3----------|---- 8------ 8-- 5 5---- 3-- 3--|
A|-------- 3-- 4-- 5------ 6-- 7--| 8-------------- 7-- 6-- 5-- 4--|
E| 6------------------------------|--------------------------------|
http://classicalguitartablature.blogspot.com/
E|--------------------------------|--------------------------------|
B| 1------------------------------|--------------------------------|
G| 3------ 7------ 5--------------| 5---- 3------ 2-- 3-- 5--------|
D|---- 1-- 6-- 6-- 5-- 5----------| 3---- 1------ 1-- 1-- 3--------|
A| 3------------------------------|--------------------------------|
E|-------- 7------ 6------ 3-- 4--| 5 4---- 3 2-- 1-- 3-- 4---- 5--|
http://classicalguitartablature.blogspot.com/
E|-- 1----------------------------|--------------------------------|
B| 3 3---- 6-- 3-- 6------ 6-- 8--|---- 6---------------- 8------ 8|
G| 2 2---- 3-- 3------ 7-- 8-- 8--|---- 7------ 3-------- 8-- 7-- 7|
D| 3------ 3-- 3 8-------- 6-- 6--|---- 6------ 3-------- 6-- 6-- 8|
A| 1------ 5---- 8----------------|------------------ 8------ 7-- 6|
E|------------------------ 8------| 7------ 6---- 4----------------|
http://classicalguitartablature.blogspot.com/
E|-- 6-- 6---------- 8------------|--------------------------------|
B|-- 8-- 8-- 8--11--10--------11--|------------ 9------ 6-- 8------|
G|------ 7-- 7-- 8-- 7--------10--|---- 9------ 8------ 7-- 7------|
D|--------------10------------ 8--|---- 8------ 6------ 6-- 6------|
A|------ 7------ 8------ 9----10--|---- 9------ 8---------- 7------|
E|--------------------------------|-------------------- 6----------|
http://classicalguitartablature.blogspot.com/
E|10-- 8---------- 6--------------|--------------------------------|
B| 8-------------- 6 8-- 6------ 3|-- 1---------------- 1-- 1------|
G| 7-- 7-------- 5-- 5-- 5------ 3|-------- 3------ 3-- 3-- 3------|
D|---------------------- 5------ 1|---------- 1---- 1-- 1-- 1------|
A| 6------------ 5-------------- 3|--------------------------------|
E|--------------------------------|---------------- 3-- 2-- 1------|
http://classicalguitartablature.blogspot.com/
E|--------------------------------|--------------------------------|
B| 3------ 3---------- 3------ 4--|---- 4-- 4----------------------|
G| 3------ 3---------- 3----------|-------- 3------ 3-- 5-- 3------|
D| 3-------------------------- 5--|---------------- 3------ 3------|
A|--------------------------------|--------------------------------|
E| 6-------------- 6------ 6-- 6--|------------ 6-------------- 6--|
http://classicalguitartablature.blogspot.com/
E|--------------------------------|--------------------------------|
B| 3------ 3---------- 3------ 4--|-------- 4------ 3--------------|
G| 3------ 3---------- 3----------|-------- 3------ 3---- 5-- 3----|
D| 3------ 3---------- 3------ 5--|---- 5------ 5------------------|
A|--------------------------------|--------------------------------|
E| 6-------------- 6------ 6-- 6--|--------------------------------|
http://classicalguitartablature.blogspot.com/
E|--------------------------------|--------------------------------|
B|--------------------------------|--------------------------------|
G|---------- 3--------------------|--------------------------------|
D|---------- 3--------------------|--------------------------------|
A|--------------------------------|--------------------------------|
E|-------- 6----------------------|--------------------------------|
http://classicalguitartablature.blogspot.com/

0 ความคิดเห็น:

แสดงความคิดเห็น