To celebrate the anniversary, I am giving you (finally...) : iPhone LickByNeck !!!!!!
0 com

Let it Be (EASY)

The Beatles fingerstyle chord melody guitar EASY arrangement played in the key of E.

Let It Be - EASY ARRANGEMENT played in the key of E.
http://classicalguitartablature.blogspot.com/
E|12------11-- 9-- 7---- 5-- 4-- 2|-------------- 0----------------|
B|10----1010--10-- 5-- 5 5-- 5-- 5|------ 5------ 0-------- 0---- 5|
G| 9------ 9-- 9-- 4-- 4 4-- 4----| 2-- 2---------- 1---- 1------ 2|
D|--------------------------------|-- 4------ 4-------- 2------ 2--|
A| 0------------------------------| 2------------------------------|
E|---------------- 0--------------|---------------- 0--------------|
http://classicalguitartablature.blogspot.com/
E|--------------------------------|--------------------------------|
B|-------- 4-- 2-- 0--------------|---------------------------- 0--|
G|---- 2-- 2-- 2------ 1 2---- 1--|-------------------- 1----------|
D|-- 2-------- 2---- 2------------| 4------ 2------ 2------ 2------|
A| 0------------------------------| 2---------- 2------------------|
E|---------------- 0--------------|---------------- 0--------------|
http://classicalguitartablature.blogspot.com/
http://classicalguitartablature.blogspot.com/
E|---------------------- 0-- 2-- 4|-- 4 4 4-------- 0------------ 4|
B| 0---- 0 2------ 0---- 0---- 2 5|---- 5-- 5-- 7-- 2------------ 5|
G| 1---- 1 1-- 1-- 4------------ 4|-- 4 4-- 4-- 4-- 2------ 2---- 4|
D| 2---- 2 2------------ 4--------|------------ 6------ 2---- 2----|
A|---------------- 2------------ 4|---------------- 0--------------|
E| 0------------------------------|--------------------------------|
http://classicalguitartablature.blogspot.com/
E|---- 4 4 5-- 4-- 2------ 4-- 2--| 0------------------------------|
B|---- 5-- 5-- 5-- 4---- 4 4-- 4--| 2-------------------- 0--------|
G|---- 4 4---- 4-- 4-- 4------ 4--| 2---- 2---- 2-- 1-- 1---- 1----|
D|--------------------------------|---- 2-- 4-- 2---- 2------------|
A|---------------- 2--------------| 0------------------------------|
E| 0------------------------------|-------- 4-- 2-- 0--------------|
http://classicalguitartablature.blogspot.com/
E|---------------------- 0-- 2-- 4|-- 4 4 4-------- 0------------ 4|
B| 0---- 0 2------ 0---- 0---- 2 5|---- 5-- 5-- 7-- 2------------ 5|
G| 1---- 1 1-- 1-- 4------------ 4|-- 4 4-- 4-- 4-- 2------ 2---- 4|
D| 2---- 2 2------------ 4--------|------------ 6------ 2---- 2----|
A|---------------- 2------------ 4|---------------- 0--------------|
E| 0------------------------------|--------------------------------|
http://classicalguitartablature.blogspot.com/
E|---- 4 4 5-- 4-- 2------ 4-- 2--| 0---------------------- 4------|
B|---- 5-- 5-- 5-- 4---- 4 4-- 4--| 2---------------------- 4-- 7 5|
G|---- 4 4---- 4-- 4-- 4------ 4--| 2---- 2---- 2-- 4---- 4 4-- 4--|
D|--------------------------------|---- 2-- 4-- 2------ 6------ 4--|
A|---------------- 2--------------| 0---------------------- 6------|
E| 0------------------------------|-------- 4-- 2-- 0--------------|
http://classicalguitartablature.blogspot.com/
E|-------- 4-- 7 9----------------| 4 2------------ 4------------ 4|
B|--------------12--12----12--12--| 2 2 5-- 2------ 5---- 5------ 5|
G| 4---- 4------11--11----11--11--| 2 2 2---- 2 4-- 4---- 4------ 4|
D|---- 6-------------- 9-- 9-- 9--|------ 2------------ 6------ 6--|
A| 4--------------11--------------| 0------------------------------|
E|--------------------------------|---------------- 0--------------|
http://classicalguitartablature.blogspot.com/
E|---- 4 4 5-- 4-- 2------ 4-- 2--| 0---------------------- 4------|
B|---- 5-- 5-- 5-- 4---- 4 4-- 4--| 2---------------------- 4-- 7 5|
G|---- 4 4---- 4-- 4-- 4------ 4--| 2---- 2---- 2-- 4---- 4 4-- 4--|
D|--------------------------------|---- 2-- 4-- 2------ 6------ 4--|
A|---------------- 2--------------| 0---------------------- 6------|
E| 0------------------------------|-------- 4-- 2-- 0--------------|
http://classicalguitartablature.blogspot.com/
E|-------- 4-- 7 9----------------| 4 2------------ 4------------ 4|
B|--------------12--12----12--12--| 2 2 5-- 2------ 5---- 5------ 5|
G| 4---- 4------11--11----11--11--| 2 2 2---- 2 4-- 4---- 4------ 4|
D|---- 6-------------- 9-- 9-- 9--|------ 2------------ 6------ 6--|
A| 4--------------11--------------| 0------------------------------|
E|--------------------------------|---------------- 0--------------|
http://classicalguitartablature.blogspot.com/
E|---- 4 4 5-- 4-- 2------ 4-- 2--| 0----------------------------12|
B|---- 5-- 5-- 5-- 4---- 4 4-- 4--| 2-------------- 0--------------|
G|---- 4 4---- 4-- 4-- 4------ 4--| 2---- 2---- 2-- 1-- 1------ 1--|
D|--------------------------------|---- 2-- 4-- 2------ 2-- 2------|
A|---------------- 2--------------| 0------------------------------|
E| 0------------------------------|-------- 4-- 2-- 0--------------|
http://classicalguitartablature.blogspot.com/
E|--------11-- 9-- 7---- 5-- 4-- 2|-------------- 0----------------|
B|10----1010--10-- 5-- 5 5-- 5-- 5|------ 5------ 0-------- 0---- 5|
G| 9-- 9-- 9-- 9-- 4-- 4 4-- 4----| 2-- 2---------- 1---- 1------ 2|
D|--------------------------------|-- 4------ 4-------- 2------ 2--|
A| 0------------------------------| 2------------------------------|
E|---------------- 0--------------|---------------- 0--------------|
http://classicalguitartablature.blogspot.com/
E|--------------------------------|------------------------ 0------|
B|-------- 4-- 2-- 0--------------|--------------------------------|
G|---- 2-- 2-- 2------ 1 2---- 1--|-------------------- 1----------|
D|-- 2-------- 2---- 2------------| 4------ 2------ 2--------------|
A| 0------------------------------| 2---------- 2------------------|
E|---------------- 0--------------|---------------- 0--------------|
http://classicalguitartablature.blogspot.com/
E|--------------------------------|--------------------------------|
B|--------------------------------|--------------------------------|
G|--------------------------------|--------------------------------|
D|--------------------------------|--------------------------------|
A|--------------------------------|--------------------------------|
E|--------------------------------|--------------------------------|
http://classicalguitartablature.blogspot.com/
0 com

Close To You (EASY)

The Carpenters' hit fingerstyle chord melody guitar EASY arrangement played in the key of G.

Close To You- EASY Arrangement played in the key of G.
http://classicalguitartablature.blogspot.com/
E|--------------------------------|-------------------------- 0----|
B|--------------------------------| 3---------- 3 3---- 1 3--------|
G|------------------------ 0------| 0------ 0---- 0----------------|
D|---------------- 2--------------|---- 2--------------------------|
A|--------------------------------| 3------------------------------|
E|--------------------------------|---------------- 3--------------|
http://classicalguitartablature.blogspot.com/
E|------------------------------ 2|------------------------------ 3|
B| 0---------- 0------ 0 3------ 3|------------ 3-------------- 3 0|
G| 2---- 2------------ 2----------|------ 2-------------- 4------ 0|
D|---- 1-------------- 1------ 1--|---- 4-------------- 4----------|
A| 2------------------------------| 2------------------------------|
E|-------------- 2----------------|-------------- 2-------------- 0|
http://classicalguitartablature.blogspot.com/
http://classicalguitartablature.blogspot.com/
E|---- 2--------------------------|--------------------------------|
B|---- 0------ 0-- 5---------- 5--|------------ 3------------------|
G|------ 0-------- 4------ 4------|---- 0------------------ 0-- 0--|
D|-------------------- 5----------| 2------ 2---------- 0---- 0----|
A|---------------- 5------------ 3|---------------- 2--------------|
E|--------------------------------|--------------------------------|
http://classicalguitartablature.blogspot.com/
E|------------------------------ 2|--------------------------------|
B|------------ 3---------------- 3|---- 3------ 0------------------|
G|---- 0---------- 5---- 5------ 4|---- 4---------------- 0--------|
D| 2------ 2---------- 4------ 4--|------ 4------------ 0------ 0--|
A| 0-------------- 5--------------|--------------------------------|
E|------------------------------ 3|-------------- 3-------------- 3|
http://classicalguitartablature.blogspot.com/
E|--------------------------------|-------------------------- 0----|
B|--------------------------------| 3---------- 3 3---- 1 3--------|
G|------ 0---------------- 0------| 0------ 0---- 0----------------|
D|---- 0------ 0-- 2--------------|---- 2--------------------------|
A|--------------------------------| 3------------------------------|
E|---------------- 3--------------|---------------- 3--------------|
http://classicalguitartablature.blogspot.com/
E|------------------------------ 2|------------------------------ 3|
B| 0---------- 0------ 0 3------ 3|------------ 3-------------- 3 0|
G| 2---- 2------------ 2----------|------ 2-------------- 4------ 0|
D|---- 1-------------- 1------ 1--|---- 4-------------- 4----------|
A| 2------------------------------| 2------------------------------|
E|-------------- 2----------------|-------------- 2-------------- 0|
http://classicalguitartablature.blogspot.com/
E|---- 2--------------------------|--------------------------------|
B|---- 0------ 0-- 5---------- 5--|------------ 3------------------|
G|------ 0-------- 4------ 4------|---- 0------------------ 0-- 0--|
D|-------------------- 5----------| 2------ 2---------- 0---- 0----|
A|---------------- 5------------ 3|---------------- 2--------------|
E|--------------------------------|--------------------------------|
http://classicalguitartablature.blogspot.com/
E|------------------------------ 2|--------------------------------|
B|------------ 3---------------- 3|---- 3------ 0------------------|
G|---- 0---------- 5---- 5------ 4|---- 4---------------- 0--------|
D| 2------ 2---------- 4------ 4--|------ 4------------ 0------ 0--|
A| 0-------------- 5--------------|--------------------------------|
E|------------------------------ 3|-------------- 3-------------- 3|
http://classicalguitartablature.blogspot.com/
E|--------------------------------|--------------------------------|
B|--------------------------------|-------------- 0---- 0----------|
G|------ 0------------ 5------ 4--| 0-- 0 2---- 2 0------ 2---- 2 0|
D|---- 0------ 0------ 3------ 3--| 2-- 2-- 2-- 2 2------ 2---- 2 2|
A|-------------- 5------ 4--------| 3---------------------------- 3|
E|--------------------------------|-------------- 3----------------|
http://classicalguitartablature.blogspot.com/
E|--------------------------------|---------------- 2-- 2-------- 2|
B|-------------- 0---- 0-------- 3|---- 3-- 5-- 5-- 3-- 3-- 5-- 3 0|
G|---- 0 2---- 2 0------ 2---- 2 2|---- 2-- 2-- 2-- 2-- 2------ 2 0|
D|---- 2 2---- 2 2------ 2---- 2 4|---- 4-- 4-- 4---------- 4-- 4--|
A|------------------------------ 2|--------------------------------|
E|-------------- 3----------------|---------------- 2--------------|
http://classicalguitartablature.blogspot.com/
E|---------------------------- 2--| 3-- 3-- 3-- 3-- 3-- 3 3---- 3 3|
B|------------ 0---------- 5------| 0-- 0-- 0-- 0-- 0-- 0 0---- 0 1|
G|-------- 0---------- 4----------| 0-- 0-- 0-- 0-- 0-- 0 0---- 0 0|
D|---- 0--------------------------|--------------------------------|
A|---------------- 5--------------| 3-------------- 2------------ 0|
E| 0------------------------------|--------------------------------|
http://classicalguitartablature.blogspot.com/
E|---- 3 3---- 3 3-- 0-- 2-- 3-- 5|--------------------------------|
B|---- 1 1---- 1 1-------------- 5|------------ 5-------------- 0--|
G|---- 0 0---- 0 0-------------- 5|------ 5---------------- 0------|
D|--------------------------------|---- 5-------------- 2----------|
A|------------------------------ 5|---------------- 3--------------|
E|-------------- 3----------------|--------------------------------|
http://classicalguitartablature.blogspot.com/
E|--------------------------------|-------------------------- 0----|
B|------------ 0------------------| 3---------- 3 3---- 1 3--------|
G|-------- 0-------------- 0------| 0------ 0---- 0----------------|
D|---- 0---------- 2--------------|---- 2--------------------------|
A| 2-------------- 0------ 2------| 3------------------------------|
E|--------------------------------|---------------- 3--------------|
http://classicalguitartablature.blogspot.com/
E|------------------------------ 2|------------------------------ 3|
B| 0---------- 0------ 0 3------ 3|------------ 3-------------- 3 0|
G| 2---- 2------------ 2----------|------ 2-------------- 4------ 0|
D|---- 1-------------- 1------ 1--|---- 4-------------- 4----------|
A| 2------------------------------| 2------------------------------|
E|-------------- 2----------------|-------------- 2-------------- 0|
http://classicalguitartablature.blogspot.com/
E|---- 2--------------------------|--------------------------------|
B|---- 0------ 0-- 5---------- 5--|------------ 3------------------|
G|------ 0-------- 4------ 4------|---- 0------------------ 0-- 0--|
D|-------------------- 5----------| 2------ 2---------- 0---- 0----|
A|---------------- 5------------ 3|---------------- 2--------------|
E|--------------------------------|--------------------------------|
http://classicalguitartablature.blogspot.com/
E|------------------------------ 2|--------------------------------|
B|------------ 3---------------- 3|---- 3------ 0------------------|
G|---- 0---------- 5---- 5------ 4|---- 4---------------- 0--------|
D| 2------ 2---------- 4------ 4--|------ 4------------ 0------ 0--|
A| 0-------------- 5--------------|--------------------------------|
E|------------------------------ 3|-------------- 3-------------- 3|
http://classicalguitartablature.blogspot.com/
E|--------------------------------|--------------------------------|
B|--------------------------------|------------ 3------------------|
G|------ 0------------ 5------ 4--|---- 0------------------ 0-- 0--|
D|---- 0------ 0------ 3------ 3--| 2------ 2---------- 0---- 0----|
A|-------------- 5------ 4------ 3|---------------- 2--------------|
E|--------------------------------|--------------------------------|
http://classicalguitartablature.blogspot.com/
E|------------------------------ 2|--------------------------------|
B|------------ 3---------------- 3|---- 3------ 0------------------|
G|---- 0---------- 5---- 5------ 4|---- 4---------------- 0--------|
D| 2------ 2---------- 4------ 4--|------ 4------------ 0------ 0--|
A| 0-------------- 5--------------|--------------------------------|
E|------------------------------ 3|-------------- 3-------------- 3|
http://classicalguitartablature.blogspot.com/
E|--------------------------------| 3------------------ 2-- 3-- 2--|
B|--------------------------------| 0---------- 0------ 0-- 0-- 0--|
G|------ 0------------ 5------ 4--| 0------ 0---------- 0-- 0-- 0--|
D|---- 0------ 0------ 3------ 3--|---- 2--------------------------|
A|-------------- 5-------- 4------| 3-------------- 2--------------|
E|--------------------------------|--------------------------------|
http://classicalguitartablature.blogspot.com/
E| 0---------------------------- 2|--------------------------------|
B| 1---------- 1-------------- 5 3|---- 3------ 0------------------|
G| 0------ 0-------------- 5---- 4|---- 4---------------- 0--------|
D|---- 2-------------- 5----------|------ 4------------ 0------ 0--|
A| 0-------------- 5--------------|--------------------------------|
E|------------------------------ 3|-------------- 3-------------- 3|
http://classicalguitartablature.blogspot.com/
E|--------------------------------| 3------------------ 2-- 3-- 2--|
B|--------------------------------| 0---------- 0------ 0-- 0-- 0--|
G|------ 0------------ 5------ 4--| 0------ 0---------- 0-- 0-- 0--|
D|---- 0------ 0------ 3------ 3--|---- 2--------------------------|
A|-------------- 5------ 4--------| 3-------------- 2--------------|
E|--------------------------------|--------------------------------|
http://classicalguitartablature.blogspot.com/
E| 0------------------------------| 2------------------------------|
B| 1---------- 1-------------- 5--| 3-- 3--------------------------|
G| 0------ 0-------------- 5---- 4|------------ 4------------------|
D|---- 2-------------- 5----------|------------ 4------------------|
A| 0-------------- 5--------------|--------------------------------|
E|------------------------------ 3|--------------------------------|
http://classicalguitartablature.blogspot.com/
0 com

Just The Way You Are (EASY)

Billy Joel's hit fingerstyle solo guitar easy arrangement played in the key of G.

Just The Way You Are- EASY Arrangement played in the key of G.
http://classicalguitartablature.blogspot.com/
E|--------------------------------|---------- 0--------------------|
B|------ 0---- 1------------------|------------------ 3------------|
G|------ 0---- 0-------- 0--------|------ 0------------------ 0----|
D|---- 0------ 1------ 1------ 1--|-- 0------------------ 0--------|
A|--------------------------------|--------------------------------|
E| 3------------------------------| 3---------------------------- 3|
http://classicalguitartablature.blogspot.com/
E|--------------------------------|------------ 0------------------|
B|------ 0-- 1--------------------|-------- 0-------- 3------------|
G|---------- 0---------- 0--------|-------- 0------------------ 0--|
D|-- 0------ 1-------- 1---- 1----|---- 0------------------ 0------|
A|--------------------------------|--------------------------------|
E|--------------------------------| 3------------------------------|
http://classicalguitartablature.blogspot.com/
http://classicalguitartablature.blogspot.com/
E|------------------ 7------ 3----|--------------------------------|
B|---------- 8-------------- 5----|---- 5--------------------------|
G|------ 7------------------ 4----|---- 4---------- 4---------- 4--|
D|---- 9--------------------------|---- 5---- 5---------- 5--------|
A|10---------------------------- 4|--------------------------------|
E|--------------------------------|--------------------------------|
http://classicalguitartablature.blogspot.com/
E|---------------------- 3--------| 0------------------------------|
B|---------------- 5--------------| 0-- 0---------------------- 0--|
G|------------ 4------------------| 0---------------------- 4------|
D|---- 5--------------------------|-------------------- 3----------|
A| 3------------------------------|------------------------------ 3|
E|--------------------------------| 0---------- 3------------------|
http://classicalguitartablature.blogspot.com/
E|--------------------------------|--------------------------------|
B|---------- 0------ 3-------- 0--|---------------------------- 0--|
G|------ 0------------------------|------ 2-- 0---------------- 2--|
D|---- 2---------------- 2--------|-- 1---------------- 1----------|
A|------------------------------ 3|--------------------------------|
E|--------------------------------|--------------------------------|
http://classicalguitartablature.blogspot.com/
E|--------------------------------|--------------------------------|
B|--------------------------------|--------------------------------|
G|---------- 2---------------- 5--|-- 5------ 4------------ 4------|
D|-------- 0------------------ 4--|-- 4------ 3---------------- 3--|
A| 2------------ 2-- 3-- 4---- 5--|-------------------- 4----------|
E|--------------------------------|---- 4------ 3------------------|
http://classicalguitartablature.blogspot.com/
E|--------------------------------|--------------------------------|
B|---------- 0--------------------|--------------------------------|
G|------ 0------------ 0------ 2--|---- 0------ 0------------------|
D|---- 2---------------------- 1--|-------- 1---------- 1----------|
A| 3-------------------------- 3--|--------------------------------|
E|--------------------------------|--------------------------------|
http://classicalguitartablature.blogspot.com/
E|-------------------------- 2----|---- 3--------------------------|
B|------------------ 3------ 0----|---------------- 0--------------|
G|---- 4---- 4-------------- 0----|------------ 0-------- 0--------|
D|------ 4------------------------|---------------------------- 0--|
A| 2------------------------------|------------------------------ 0|
E|--------------------------------| 0------------------------------|
http://classicalguitartablature.blogspot.com/
E|--------------------------------|---- 5--------------------------|
B|------ 5-- 5------ 7------ 8----|------------ 7------ 5------ 3--|
G|------ 6-- 6------ 6-------- 6--|------------ 6------ 6------ 5--|
D|-- 5-------------- 5-------- 5--|------------ 5------ 5------ 5--|
A|---------------------------- 0--|--------------------------------|
E|--------------------------------|--------------------------------|
http://classicalguitartablature.blogspot.com/
E|--------------------------------|--------------------------------|
B|---------------- 3--------------|---------- 3---------------- 1--|
G|------------ 5-- 4---- 4--------|------ 0---------------- 0------|
D|-------- 5---------- 2------ 2--|---- 0-------------- 2----------|
A| 5-------------- 3--------------| 2-------------- 0--------------|
E|--------------------------------|--------------------------------|
http://classicalguitartablature.blogspot.com/
E|------------------ 7------ 3----|--------------------------------|
B|------ 8-- 8------ 8------ 5----|-- 5----------------------------|
G|------ 7-- 7------ 7------ 4----|-- 4------ 4-------------- 4----|
D|------ 9-- 9--------------------|-- 5------ 5-------- 5----------|
A|10---------------------------- 4|-------------- 4-------------- 3|
E|--------------10----------------|--------------------------------|
http://classicalguitartablature.blogspot.com/
E|------------------ 3---------- 0|--------------------------------|
B|------ 5---------- 5---------- 0|---------- 0--------------------|
G|------ 4---------------------- 0|---------- 2---------- 2--------|
D|-- 5------ 5-------------- 5----|------------ 3------ 3------ 3--|
A|--------------------------------|--------------------------------|
E|-------------- 3-------------- 0|---- 1 2---- 3------------------|
http://classicalguitartablature.blogspot.com/
E|--------------------------------|--------------------------------|
B|------ 0------------ 3----------| 0-------------------------- 0--|
G|------ 0------------ 0----------| 2-- 2------ 0-------------- 2--|
D|-- 2-------- 2-------------- 2--| 1-- 1------ 1------ 1------ 0--|
A| 3------------------------------| 3-------------- 3--------------|
E|-------------- 3----------------|--------------------------------|
http://classicalguitartablature.blogspot.com/
E|--------------------------------|--------------------------------|
B|--------------------------------|--------------------------------|
G|---------- 2-------------- 5----|-- 5------ 4---------- 4--------|
D|------ 0------------------ 4----|-- 4------ 3---------------- 3--|
A| 2------------ 2-- 3-- 4-- 5----|-------------------- 4----------|
E|--------------------------------|---- 4------ 3------------------|
http://classicalguitartablature.blogspot.com/
E|--------------------------------|--------------------------------|
B|---------- 0--------------------|--------------------------------|
G|------ 0---------- 0------------| 2---- 0------------------------|
D|-- 2------------------ 2--------| 1------------------ 1------ 1--|
A| 3------------------------------| 3------------------------------|
E|-------------- 3----------------|-------------- 3----------------|
http://classicalguitartablature.blogspot.com/
E|-------------------------- 2----|-- 3----------------------------|
B|---------- 0------ 3------ 0----|---------- 0-------------- 0----|
G|------ 2------------------ 0----|---------------------- 0--------|
D|---- 0---------------- 0--------|-------------- 0-- 0------------|
A| 2------------------------------|-------------- 2----------------|
E|-------------- 2-------------- 0|--------------------------------|
http://classicalguitartablature.blogspot.com/
E|--------------------------------|-- 7---------------------- 3----|
B|------ 5-- 5------ 7------ 8----|-- 5------ 5------ 7------ 3----|
G|------ 5-- 5------ 5------ 5----|-- 5------ 5------ 5------ 0----|
D|-- 5---------------------- 5----|---------- 5------ 5------------|
A| 0------------ 0-------------- 5|------ 5------ 5----------------|
E|--------------------------------|------------------------------ 3|
http://classicalguitartablature.blogspot.com/
E|--------------------------------|--------------------------------|
B|---------- 3-------------- 3----|--------------------------------|
G|------ 0------------ 0----------|---- 5------ 5------ 4------ 4--|
D|--------------------------------|---- 4------ 4------ 3------ 3--|
A|--------------------------------| 5---------------------- 4------|
E|---------------- 3--------------|-------- 4------ 3--------------|
http://classicalguitartablature.blogspot.com/
E|------------------ 3-------- 2--|-- 0----------------------------|
B|---- 5---- 5-- 5------------ 3--|-- 3------ 3---------- 1------ 3|
G|---- 4---- 4-- 4------------ 2--|------------------ 2---------- 2|
D|---- 5------ 5 5----------------|--------------------------------|
A| 3-------------- 3------------ 3|-------------- 3-------------- 2|
E|--------------------------------|--------------------------------|
http://classicalguitartablature.blogspot.com/
E|------------------ 2---------- 0|--------------------------------|
B|------------------------------ 0|--------------------------------|
G|---------- 2---------------- 2 2|------------ 2 1------------ 1--|
D|------ 4------------------------|------ 0------------ 0----------|
A|--------------------------------|------------------------------ 0|
E|-------------- 2----------------| 0-------------- 0--------------|
http://classicalguitartablature.blogspot.com/
E|------------------ 0------------|--------------------------------|
B|------ 1------ 1-------------- 3|------------ 0------------------|
G|------ 2------ 2-------------- 5|---- 5------ 2------ 2----------|
D|-- 2------ 2-------------- 2----| 4---------- 0-------------- 0--|
A|--------------------------------| 5------------------------------|
E|-------------- 0----------------|-------------- 2----------------|
http://classicalguitartablature.blogspot.com/
E|--------------------------------|--------------------------------|
B| 0------------------------------|---- 1------ 1------ 1------ 1--|
G| 0------ 0---------- 0------ 0--|---- 2------ 2------ 2------ 2--|
D| 0------ 0---------- 0------ 0--|---- 0------ 0------ 0------ 0--|
A|--------------------------------|------------------------------ 6|
E| 3-------------- 3--------------| 1-------------- 1--------------|
http://classicalguitartablature.blogspot.com/
E|------------------ 6---------- 5|---- 3--------------------------|
B|------ 8------ 8-------------- 6|---- 6---- 6---------- 4------ 6|
G|------ 7------ 7-------------- 5|---- 5------------ 5------ 5-- 5|
D|-- 8------ 8-------------- 8----|--------------------------------|
A|-------------- 6-------------- 6|-------------- 6----------------|
E|--------------------------------|--------------------------------|
http://classicalguitartablature.blogspot.com/
E|------------------ 5---------- 3|--------------------------------|
B|------------------------------ 1|---------------- 0--------------|
G|---------- 5-------------- 5----| 0---------- 0-------- 0--------|
D|------ 7------------------------|---- 0---------------------- 0--|
A| 5------------------------------|--------------------------------|
E|-------------- 5----------------| 3------------------------------|
http://classicalguitartablature.blogspot.com/
E|------------------ 3------------|--------------------------------|
B|------------ 4 4----------------| 6------ 3-- 4 3------------ 3--|
G|-------- 3----------------------| 3---- 3------------ 5------ 5--|
D|---- 5--------------------------|---- 5---------------------- 5--|
A| 3------------------------------| 6------------------------------|
E|--------------------------------|--------------------------------|
http://classicalguitartablature.blogspot.com/
E|--------------------------------|--------------------------------|
B|-------- 3---------- 3------ 3--|--------------------------------|
G|-------- 5---------- 5------ 5--|---- 5-------- 5---- 5------ 5--|
D|-------- 5---------- 5------ 5--|---- 5------ 5------ 5------ 5--|
A|--------------------------------| 5-------------- 5--------------|
E| 5-------------- 5--------------|--------------------------------|
http://classicalguitartablature.blogspot.com/
E|------------------ 7------ 3----|--------------------------------|
B|------ 8-- 8------ 8------ 5----|-- 5----------------------------|
G|------ 7-- 7------ 7------ 4----|-- 4------ 4-------------- 4----|
D|------ 9-- 9--------------------|-- 5------ 5-------- 5----------|
A|10---------------------------- 4|-------------- 4-------------- 3|
E|--------------10----------------|--------------------------------|
http://classicalguitartablature.blogspot.com/
E|------------------ 3---------- 0|--------------------------------|
B|------ 5---------- 5---------- 0|---------- 0--------------------|
G|------ 4---------------------- 0|---------- 2---------- 2--------|
D|-- 5------ 5-------------- 5----|------------ 3------ 3------ 3--|
A|--------------------------------|--------------------------------|
E|-------------- 3-------------- 0|---- 1 2---- 3------------------|
http://classicalguitartablature.blogspot.com/
E|--------------------------------|--------------------------------|
B|------ 0------------ 3----------| 0-------------------------- 0--|
G|------ 0------------ 0----------| 2-- 2------ 0-------------- 2--|
D|-- 2-------- 2-------------- 2--| 1-- 1------ 1------ 1------ 0--|
A| 3------------------------------| 3-------------- 3--------------|
E|-------------- 3----------------|--------------------------------|
http://classicalguitartablature.blogspot.com/
E|--------------------------------|--------------------------------|
B|--------------------------------|--------------------------------|
G|---------- 2-------------- 5----|-- 5------ 4---------- 4--------|
D|------ 0------------------ 4----|-- 4------ 3---------------- 3--|
A| 2------------ 2-- 3-- 4-- 5----|-------------------- 4----------|
E|--------------------------------|---- 4------ 3------------------|
http://classicalguitartablature.blogspot.com/
E|--------------------------------|--------------------------------|
B|---------- 0--------------------|--------------------------------|
G|------ 0------------ 0------ 2--|---- 0------ 0------------------|
D|---- 2---------------------- 1--|-------- 1---------- 1----------|
A| 3-------------------------- 3--|--------------------------------|
E|--------------------------------|--------------------------------|
http://classicalguitartablature.blogspot.com/
E|-------------------------- 2----|---- 3--------------------------|
B|------------------ 3------ 0----|---------------- 0--------------|
G|---- 4---- 4-------------- 0----|------------ 0-------- 0--------|
D|------ 4------------------------|---------------------------- 0--|
A| 2------------------------------|--------------------------------|
E|--------------------------------| 0------------------------------|
http://classicalguitartablature.blogspot.com/
E|--------------------------------|-- 7---------------------- 3----|
B|------ 5-- 5------ 7------ 8----|-- 5------ 5------ 7------ 0----|
G|------ 5-- 5------ 5------ 5----|-- 5------ 5------ 5------ 0----|
D|-- 5---------------------- 5----|---------- 5------ 5------------|
A| 0------------ 0-------------- 5|------ 5------ 5----------------|
E|--------------------------------|------------------------------ 3|
http://classicalguitartablature.blogspot.com/
E|--------------------------------|---------- 0--------------------|
B|---------- 1--------------------|------------------ 3------------|
G|---------- 0------------ 0------|------ 0------------------ 0----|
D|-- 0------ 1------ 1-------- 1--|-- 0------------------ 0--------|
A|--------------------------------|--------------------------------|
E|--------------------------------| 3---------------------------- 3|
http://classicalguitartablature.blogspot.com/
E|--------------------------------|------------ 0------------------|
B|------ 0-- 1--------------------|-------- 0-------- 3------------|
G|---------- 0---------- 0--------|-------- 0------------------ 0--|
D|-- 0------ 1-------- 1---- 1----|---- 0------------------ 0------|
A|--------------------------------|--------------------------------|
E|--------------------------------| 3------------------------------|
http://classicalguitartablature.blogspot.com/
E|--------------------------------|--------------------------------|
B|---- 0--------------------------|--------------------------------|
G|-- 2----------------------------|--------------------------------|
D|-- 0----------------------------|--------------------------------|
A|--------------------------------|--------------------------------|
E| 3------------------------------|--------------------------------|
http://classicalguitartablature.blogspot.com/
0 com

You Are The Sunshine Of My Life (EASY)

Stevie Wonder's hit fingerstyle chord melody guitar EASY arrangement played in the key of C.

You Are The Sunshine Of My Life- EASY Arrangement played in the key of C.
http://classicalguitartablature.blogspot.com/
E| 0---------- 0-------------- 0--|------------ 0------------------|
B| 3------ 3-- 3------ 3------ 3--|---- 3------ 3------ 3------ 3--|
G| 4------ 4-- 4------ 4------ 4--|---- 4------ 4------ 4------ 4--|
D|-------------------- 2----------|---- 2-------------- 2------ 2--|
A| 3-------------- 3--------------| 3-------------- 3--------------|
E|--------------------------------|--------------------------------|
http://classicalguitartablature.blogspot.com/
E|--------------------------------|--------------------------------|
B|------------ 0------ 2-- 4------| 6-- 8----10--12--------12------|
G|-------- 2-- 0------ 2-- 4------| 6-- 8----10--12--------12------|
D| 1------ 3----------------------|--------------------------------|
A|--------------------------------|--------------------------------|
E| 3------------------------------|--------------------------------|
http://classicalguitartablature.blogspot.com/
http://classicalguitartablature.blogspot.com/
E|--------------------------------|--------------------------------|
B|-------- 1-- 1------ 1------ 3--|---- 3------ 0------ 0----------|
G|-------- 0-- 0------ 3------ 2--|---- 2------ 2------ 2------ 0--|
D|-------- 2-- 2------ 2------ 1--|------------ 1------ 1------ 0--|
A| 3------------------------------|--------------------------------|
E|---------------- 2--------------| 1-------------- 1------------ 0|
http://classicalguitartablature.blogspot.com/
E|--------------------------------|--------------------------------|
B|--------------------------------| 4------ 4---------- 5------ 5--|
G|------ 0------------------------| 6------ 6---------- 6------ 6--|
D|------ 0------------ 0---- 0----| 5------ 5---------- 5------ 5--|
A|--------------------------------|--------------------------------|
E|-------------- 0----------------| 5-------------- 5--------------|
http://classicalguitartablature.blogspot.com/
E|--------------------------------|--------------------------------|
B|--------------------------------| 6------ 6---------- 3----------|
G|-------- 5-- 5------ 5---- 5----| 5------ 5---- 5----------------|
D|-------- 3-- 3------ 3------ 3--| 3------ 3---- 3------------ 3--|
A| 5-------------- 5--------------|--------------------------------|
E|--------------------------------| 3-------------- 3--------------|
http://classicalguitartablature.blogspot.com/
E|--------------------------------|--------------------------------|
B| 1------------------------------|--------------------------------|
G| 0------ 0---------- 0---- 0----|---- 5------ 5------ 4---- 4----|
D| 2------ 2---------- 2------ 2--|---- 3------ 3------ 3---- 3----|
A| 3------------------------------| 5------------------------------|
E|---------------- 3--------------|---------------- 3--------------|
http://classicalguitartablature.blogspot.com/
E|--------------------------------|--------------------------------|
B|-------- 1-- 1------ 1------ 3--|---- 3------ 0------ 0----------|
G|-------- 0-- 0------ 3------ 2--|---- 2------ 2------ 2------ 0--|
D|-------- 2-- 2------ 2------ 1--|------------ 1------ 1------ 0--|
A| 3------------------------------|--------------------------------|
E|---------------- 2--------------| 1-------------- 1------------ 0|
http://classicalguitartablature.blogspot.com/
E|--------------------------------|--------------------------------|
B|--------------------------------| 4------ 4---------- 5------ 5--|
G|------ 0------------------------| 6------ 6---------- 6------ 6--|
D|------ 0------------ 0---- 0----| 5------ 5---------- 5------ 5--|
A|--------------------------------|--------------------------------|
E|-------------- 0----------------| 5-------------- 5--------------|
http://classicalguitartablature.blogspot.com/
E|--------------------------------|--------------------------------|
B|--------------------------------| 6------ 6---------- 3----------|
G|-------- 5-- 5------ 5---- 5----| 5------ 5---- 5----------------|
D|-------- 3-- 3------ 3------ 3--| 3------ 3---- 3------------ 3--|
A| 5-------------- 5--------------|--------------------------------|
E|--------------------------------| 3-------------- 3--------------|
http://classicalguitartablature.blogspot.com/
E|--------------------------------|--------------------------------|
B| 1------------------------------|--------------------------------|
G| 0------ 0---------- 0---- 0----|---- 5------ 5------ 4---- 4----|
D| 2------ 2---------- 2------ 2--|---- 3------ 3------ 3---- 3----|
A| 3------------------------------| 5---------------------------- 3|
E|---------------- 3--------------|---------------- 3--------------|
http://classicalguitartablature.blogspot.com/
E|------------------ 3------------|---------------------------- 0--|
B|-------------- 1-------------- 6|---- 5------ 3-------------- 1--|
G|---------- 0-------------- 0-- 5|---- 5------ 5------ 5------ 0--|
D|------ 2-------------- 2--------| 3-- 3------ 3------ 3----------|
A|-------------- 3----------------| 5------------------------------|
E|--------------------------------|---------------- 3--------------|
http://classicalguitartablature.blogspot.com/
E|--------------------------------|--------------------------------|
B|--------------------------------|--------------------------------|
G|-------- 0----------------------|---- 5------ 5------ 2------ 2--|
D|-------- 2---------- 2------ 2--|---- 3------ 3------ 3------ 3--|
A| 3---------------------------- 5|--------------------------------|
E|---------------- 3--------------|---------------- 3--------------|
http://classicalguitartablature.blogspot.com/
E|-------------------- 3----------|--------------------------------|
B|-------------- 1------------ 6--|---- 5-------------- 3---- 3----|
G|---------- 0---------------- 5--|---- 5------ 5------------ 2----|
D|------ 2-------------------- 3--|---- 3------ 3-------------- 3--|
A| 3------------ 3----------------| 5------------------------------|
E|--------------------------------|---------------- 3--------------|
http://classicalguitartablature.blogspot.com/
E|--------------------------------|--------------------------------|
B|--------------------------------|--------------------------------|
G|-------- 2---------- 2------ 2--|---- 2------ 2------ 4------ 4--|
D|-------- 3---------- 0------ 0--|---- 0------ 0------ 3------ 3--|
A| 2------------------------------|--------------------------------|
E|---------------- 1--------------| 0-------------- 4--------------|
http://classicalguitartablature.blogspot.com/
E|------------------ 0------------|--------------------------------|
B|------------------------------ 3|-- 2-------- 0-------------- 1--|
G|------------ 2------------ 2-- 2|-- 2-------- 2------ 2------ 2--|
D|-------- 2------------ 2------ 4|---- 4------ 0-------------- 2--|
A| 0-------------- 0------------ 2|--------------------------------|
E|--------------------------------|-------------- 0----------------|
http://classicalguitartablature.blogspot.com/
E|--------------------------------|-------------------- 0----------|
B|--------------------------------|------------------------------ 3|
G|--------------------------------|------------------------------ 2|
D|------ 2------------ 2------ 2--|---- 2------ 2-------------- 2--|
A| 0------------ 0----------------|--------------------------------|
E|--------------------------------| 3------------ 3----------------|
http://classicalguitartablature.blogspot.com/
E|-------------------------- 5----|-- 5----------------------------|
B|---- 3 3-- 3-------- 3---- 5----|-- 5------ 8------ 7---------- 8|
G|------ 2-- 2-------- 2---- 5----|-- 5------ 5------ 5---------- 5|
D| 0---- 0-- 0-------- 0----------|---------- 5------ 5-------- 5 7|
A|------------------------------ 5|-------------- 5-------------- 5|
E| 2------------ 2----------------|--------------------------------|
http://classicalguitartablature.blogspot.com/
E|--------------------------------|--------------------------------|
B|--------------------------------|---- 1------ 1 1----------------|
G|-------- 5---------- 5------ 5--|---- 2------ 2---- 1------ 1----|
D|-------- 7---------- 7------ 7--|---- 3------ 3------ 3---- 3----|
A|--------------------------------|--------------------------------|
E|---------------- 5--------------| 3-------------- 3--------------|
http://classicalguitartablature.blogspot.com/
E|--------------------------------|--------------------------------|
B|-------- 1-- 1------ 1------ 3--|---- 3------ 0------ 0----------|
G|-------- 0-- 0------ 3------ 2--|---- 2------ 2------ 2------ 0--|
D|-------- 2-- 2------ 2------ 1--|------------ 1------ 1------ 0--|
A| 3------------------------------|--------------------------------|
E|---------------- 2--------------| 1-------------- 1------------ 0|
http://classicalguitartablature.blogspot.com/
E|--------------------------------|--------------------------------|
B|--------------------------------| 4------ 4---------- 5------ 5--|
G|------ 0------------------------| 6------ 6---------- 6------ 6--|
D|------ 0------------ 0---- 0----| 5------ 5---------- 5------ 5--|
A|--------------------------------|--------------------------------|
E|-------------- 0----------------| 5-------------- 5--------------|
http://classicalguitartablature.blogspot.com/
E|--------------------------------|--------------------------------|
B|--------------------------------| 6------ 6---------- 3----------|
G|-------- 5-- 5------ 5---- 5----| 5------ 5---- 5----------------|
D|-------- 3-- 3------ 3------ 3--| 3------ 3---- 3------------ 3--|
A| 5-------------- 5--------------|--------------------------------|
E|--------------------------------| 3-------------- 3--------------|
http://classicalguitartablature.blogspot.com/
E|--------------------------------|--------------------------------|
B| 1------------------------------|--------------------------------|
G| 0------ 0---------- 0---- 0----|---- 5------ 5------ 4---- 4----|
D| 2------ 2---------- 2------ 2--|---- 3------ 3------ 3---- 3----|
A| 3------------------------------| 5------------------------------|
E|---------------- 3--------------|---------------- 3--------------|
http://classicalguitartablature.blogspot.com/
E|--------------------------------|--------------------------------|
B|-------- 1-- 1------ 1------ 3--|---- 3------ 0------ 0----------|
G|-------- 0-- 0------ 3------ 2--|---- 2------ 2------ 2------ 0--|
D|-------- 2-- 2------ 2------ 1--|------------ 1------ 1------ 0--|
A| 3------------------------------|--------------------------------|
E|---------------- 2--------------| 1-------------- 1------------ 0|
http://classicalguitartablature.blogspot.com/
E|--------------------------------|--------------------------------|
B|--------------------------------| 4------ 4---------- 5------ 5--|
G|------ 0------------------------| 6------ 6---------- 6------ 6--|
D|------ 0------------ 0---- 0----| 5------ 5---------- 5------ 5--|
A|--------------------------------|--------------------------------|
E|-------------- 0----------------| 5-------------- 5--------------|
http://classicalguitartablature.blogspot.com/
E|--------------------------------|--------------------------------|
B|--------------------------------| 6------ 6---------- 3----------|
G|-------- 5-- 5------ 5---- 5----| 5------ 5---- 5----------------|
D|-------- 3-- 3------ 3------ 3--| 3------ 3---- 3------------ 3--|
A| 5-------------- 5--------------|--------------------------------|
E|--------------------------------| 3-------------- 3--------------|
http://classicalguitartablature.blogspot.com/
E| 0------------------------------|--------------------------------|
B| 3------------------ 3------ 3--| 4------ 4---------- 5------ 5--|
G| 3------------------ 3------ 3--| 6------ 6---------- 6------ 6--|
D|-------- 2---------- 2------ 2--| 5------ 5---------- 5------ 5--|
A|--------------------------------|--------------------------------|
E| 0-------------- 0--------------| 5-------------- 5--------------|
http://classicalguitartablature.blogspot.com/
E|--------------------------------|--------------------------------|
B|--------------------------------| 6------ 6---------- 3----------|
G|-------- 5-- 5------ 5---- 5----| 5------ 5---- 5----------------|
D|-------- 3-- 3------ 3------ 3--| 3------ 3---- 3------------ 3--|
A| 5-------------- 5--------------|--------------------------------|
E|--------------------------------| 3-------------- 3--------------|
http://classicalguitartablature.blogspot.com/
E|--------------------------------|--------------------------------|
B| 1---------- 1---------- 1------|--------------------------------|
G| 0---------- 0---------- 0------|--------------------------------|
D| 2---------- 2---------- 2------|--------------------------------|
A| 3---------- 3---------- 3------|--------------------------------|
E|--------------------------------|--------------------------------|
http://classicalguitartablature.blogspot.com/
0 com

Wonderful Tonight (EASY)

Eric Clapton's hit fingerstyle solo guitar easy arrangement played in the key of G.

Wonderful Tonight- EASY Arrangement played in the key of G.
http://classicalguitartablature.blogspot.com/
E|--------------------------------|--------------------------------|
B|-------------- 0----------------|-------------- 0----------------|
G|-------- 0-------- 2-- 0---- 2--|------ 2---------- 2-- 0--------|
D|---- 0------ 0------------------|-- 0------ 0-------------- 2----|
A|--------------------------------|------------------------------ 3|
E| 3---------------------------- 2|--------------------------------|
http://classicalguitartablature.blogspot.com/
E|--------------------------------|---------------------- 0--------|
B|-------------- 0----------------|-------- 0----------------------|
G|-------- 0-------- 2-- 0--------| 2-------------- 5--------------|
D|---- 2------ 2-------------- 2--|---- 4------ 4------ 4------ 4--|
A|--------------------------------| 5------------------------------|
E|--------------------------------|--------------------------------|
http://classicalguitartablature.blogspot.com/
http://classicalguitartablature.blogspot.com/
E|--------------------------------|--------------------------------|
B| 3-------------- 0--------------|-------------- 0----------------|
G| 0------ 0---------- 2-- 0-- 2--|------ 2---------- 2-- 0--------|
D|---- 0------ 0------------------|-- 0------ 0-------------- 2----|
A|--------------------------------|------------------------------ 3|
E| 3---------------------------- 2|--------------------------------|
http://classicalguitartablature.blogspot.com/
E|--------------------------------|---------------------- 0--------|
B|-------------- 0----------------|-------- 0----------------------|
G|-------- 0-------- 2-- 0--------| 2-------------- 5--------------|
D|---- 2------ 2-------------- 2--|---- 4------ 4------ 4------ 4--|
A|--------------------------------| 5------------------------------|
E|--------------------------------|--------------------------------|
http://classicalguitartablature.blogspot.com/
E|--------------------------------|--------------------------------|
B| 3------ 3------ 0-- 1-- 0------|---- 3--------------------------|
G| 0-------------- 0-- 0-- 0-- 2--|------------ 2---------- 2------|
D|---- 0------ 0------ 0-- 0------|-------- 0---------- 0------ 0--|
A|--------------------------------|--------------------------------|
E| 3------------------------------| 2------------------------------|
http://classicalguitartablature.blogspot.com/
E|--------------------------------|--------------------------------|
B|------------ 0-- 0-- 1-- 0------|--------------------------------|
G|-------- 0-- 0-- 0-- 0-- 0-- 2--|---- 2------ 2------------------|
D|---- 2---------- 2-- 2-- 2-- 4--|---- 4------ 4------ 4----------|
A| 3------------------------------| 5-------------- 5--------------|
E|--------------------------------|------------------------ 0-- 2--|
http://classicalguitartablature.blogspot.com/
E|--------------------------------|--------------------------------|
B|-------- 0 0-- 0-- 1-- 0--------|---- 3--------------------------|
G|-------- 0-- 0 0-- 0-- 0-- 2----|-------------- 2------ 2--------|
D|---- 0-- 0-- 0 0-- 0-- 0-- 0----|------------ 0------ 0------ 0--|
A|--------------------------------|--------------------------------|
E| 3------------ 3-------------- 2|--------------------------------|
http://classicalguitartablature.blogspot.com/
E|--------------------------------|--------------------------------|
B|-------- 0 0-- 0---- 1-- 0------|--------------------------------|
G|-------- 0 0-- 0-- 0---- 0-- 2--|---- 2------ 2------ 2----------|
D|---- 2---- 2-- 2-- 2---- 2-- 4--|---- 4------ 4------ 4----------|
A| 3---------------------------- 5|-------------- 5-------- 0-- 2--|
E|--------------------------------|--------------------------------|
http://classicalguitartablature.blogspot.com/
E|------------ 0-- 0---- 0--------|--------------------------------|
B|------------ 1-- 1---- 1---- 3--|--------------------------------|
G|-------- 0------ 0---------- 2--|---- 2------ 2------------------|
D|---- 2------------ 2-------- 4--|---- 4------ 4---- 4------------|
A| 3-------------- 3------------ 5|-------------- 5----------------|
E|--------------------------------|---------------------- 0---- 2--|
http://classicalguitartablature.blogspot.com/
E|--------------------------------|--------------------------------|
B|---- 0-- 0-- 0-- 0-- 0-- 3------|---------------------------- 0--|
G|---- 0-- 0------ 2-- 2-- 2-- 0--|-------- 0---------- 0-- 2------|
D|---- 0-- 0-- 0-- 0-- 0-- 0------|---- 0------ 0------ 4----------|
A|--------------------------------|---------------- 5--------------|
E| 3-------------- 2--------------| 0------------------------------|
http://classicalguitartablature.blogspot.com/
E|--------------------------------|--------------------------------|
B| 1---------- 1------ 0-- 1 0----|------------ 0------------------|
G| 0------ 0---------- 0-- 0 0----| 2 2-------------- 2 0----------|
D|---- 2-------------- 2------ 2 4|---- 4-- 4-------------- 0------|
A| 3-------------- 3--------------| 5-------------- 5--------------|
E|--------------------------------|--------------------------------|
http://classicalguitartablature.blogspot.com/
E|--------------------------------|--------------------------------|
B|---------------------------- 0--| 3---------- 3 1------ 3--------|
G| 0------ 0-------------- 0------| 0---- 0-------------- 0--------|
D|---- 0------ 0------ 0----------|---- 3------------ 3-------- 3--|
A|--------------------------------| 2-------------- 2--------------|
E| 3-------------- 3--------------|--------------------------------|
http://classicalguitartablature.blogspot.com/
E| 0------ 0-- 0-------- 0--------|--------------------------------|
B| 0------ 0-- 0------------------| 3---- 3-- 3---------------- 1--|
G| 0------ 0-- 0-------------- 0--| 2---- 2-- 2---------------- 2--|
D|---- 2-------------- 2----------|---- 4-------------- 4------ 1--|
A| 3-------------- 3--------------| 5------------ 5----------------|
E|--------------------------------|------------------------ 2------|
http://classicalguitartablature.blogspot.com/
E|--------------------------------|--------------------------------|
B| 1-- 0-------- 0---- 3----------|---------------------------- 3--|
G| 0-- 0------ 0 2---------- 2-- 0|------------------------ 5------|
D| 0-- 0-- 0---- 0------ 0--------|-- 2-- 0-- 2-------- 4----------|
A|--------------------------------|---------------- 5--------------|
E| 3-------------- 2--------------| 0------------------------------|
http://classicalguitartablature.blogspot.com/
E| 0-- 0---------- 0--------------|--------------------------------|
B| 1-- 1--------------------------| 3-------------------------- 0--|
G| 0---------- 0---------- 0------| 2------ 2-------------- 2------|
D|-------- 2---------- 2------ 2--|---- 4------ 4------ 4----------|
A| 3-------------- 3--------------| 5-------------- 5--------------|
E|--------------------------------|--------------------------------|
http://classicalguitartablature.blogspot.com/
E|--------------------------------|--------------------------------|
B| 1------ 0---- 0----------------|-------- 0------ 0--------------|
G| 0-------------- 2------ 0------| 2------------------ 2----------|
D|---- 2------ 2------ 2---- 2----|---- 4--------------------------|
A| 3-------------- 3--------------| 5------------------------------|
E|--------------------------------|--------------------------------|
http://classicalguitartablature.blogspot.com/
E|--------------------------------|--------------------------------|
B|-------------- 0----------------|-------------- 0----------------|
G| 0---- 0---------- 2-- 0---- 2--|------ 2---------- 2-- 0--------|
D|---- 0------ 0------------------|-- 0------ 0-------------- 2----|
A|--------------------------------|------------------------------ 3|
E| 3---------------------------- 2|--------------------------------|
http://classicalguitartablature.blogspot.com/
E|--------------------------------|---------------------- 0--------|
B|-------------- 0----------------|-------- 0----------------------|
G|-------- 0-------- 2-- 0--------| 2-------------- 5--------------|
D|---- 2------ 2-------------- 2--|---- 4------ 4------ 4------ 4--|
A|--------------------------------| 5------------------------------|
E|--------------------------------|--------------------------------|
http://classicalguitartablature.blogspot.com/
E|--------------------------------|--------------------------------|
B| 3-------------- 0--------------|-------------- 0----------------|
G| 0------ 0---------- 2-- 0-- 2--|------ 2---------- 2-- 0--------|
D|---- 0------ 0------------------|-- 0------ 0-------------- 2----|
A|--------------------------------|------------------------------ 3|
E| 3---------------------------- 2|--------------------------------|
http://classicalguitartablature.blogspot.com/
E|--------------------------------|---------------------- 0--------|
B|-------------- 0----------------|-------- 0----------------------|
G|-------- 0-------- 2-- 0--------| 2-------------- 5--------------|
D|---- 2------ 2-------------- 2--|---- 4------ 4------ 4------ 4--|
A|--------------------------------| 5------------------------------|
E|--------------------------------|------------------------------ 3|
http://classicalguitartablature.blogspot.com/
E|--------------------------------|--------------------------------|
B|-- 3----------------------------|--------------------------------|
G| 0------------------------------|--------------------------------|
D| 0------------------------------|--------------------------------|
A|--------------------------------|--------------------------------|
E|--------------------------------|--------------------------------|
http://classicalguitartablature.blogspot.com/