To celebrate the anniversary, I am giving you (finally...) : iPhone LickByNeck !!!!!!

Boulevard - 2 Versions - Easy Follows By Intermediate

2 versions of Boulevard played in the key of Em. Easy version follows by intermediate counterpart.
http://classicalguitartablature.blogspot.com/

http://classicalguitartablature.blogspot.com/
E| 2-------- 2---------- 2-- 3----|------------------ 0---- 2-- 3--|
B|------------------ 5---------- 0|-------- 0-------- 0---------- 1|
G| 2---- 2---------------------- 0|---- 0------------------------ 0|
D|---- 4--------------------------|--------------------------------|
A| 2------------ 2----------------|--------------------------------|
E|------------------------------ 0|------------ 0-- 0--------------|
http://classicalguitartablature.blogspot.com/
E|------------------ 0-- 2-- 3----| 3------ 3 2 0-------------- 2--|
B|------ 1---------- 1------------| 0---- 0-- 0 0-- 4------ 5------|
G|------ 0---------- 0------------| 0-- 0------ 0-- 2---- 2--------|
D|---- 2--------------------------|-------------------- 4----------|
A| 0-------- 0-- 0----------------| 3-------------- 2--------------|
E|--------------------------------|------------------------------ 0|
http://classicalguitartablature.blogspot.com/
E| 2------ 3---------------- 2 3--|------------------ 0---- 2-- 3--|
B| 0------------ 0---- 5-------- 0|-------- 0-------- 0---------- 1|
G| 0---- 0-- 0------ 2---------- 0|---- 0------------------------ 0|
D|---- 0---- 0---- 4--------------|--------------------------------|
A|-------------- 2----------------|--------------------------------|
E|------------------------------ 0|------------ 0-- 0--------------|
http://classicalguitartablature.blogspot.com/
E|------------------ 0-- 2-- 3----| 3------ 3 2 0-------------- 2--|
B|------ 1---------- 1------------| 0---- 0-- 0 0-- 4------ 5------|
G|------ 0---------- 0------------| 0-- 0------ 0-- 2---- 2--------|
D|---- 2--------------------------|-------------------- 4----------|
A| 0-------- 0-- 0----------------| 3-------------- 2--------------|
E|--------------------------------|------------------------------ 0|
http://classicalguitartablature.blogspot.com/
E| 2 3-- 0------------------------|-- 7------------------ 7-- 7----|
B| 0-- 0---- 0-------- 4 7---- 7 8|-------------- 8-- 810 8-- 8----|
G| 0-- 0-- 0-------- 2------ 4----| 7---- 7---- 7 7-- 7 7 7-- 7----|
D|---------------- 4------ 4------|---- 9 9-- 9------ 9 9----------|
A|-------------- 2------ 6--------| 7------------------------------|
E|--------------------------------|--------------------------------|
http://classicalguitartablature.blogspot.com/
E|-- 8 8------ 8------ 8---- 8-- 5|------------------------10------|
B|-- 5 5---- 5------ 5---- 5------| 7-------- 8 7 7 5------13--13--|
G| 5------ 5------ 5---- 5---- 5--| 5---- 5---------- 7-- 7------11|
D|--------------------------------|---- 7-- 7-- 7-- 7-- 7----10----|
A| 0------------ 0----------------| 5------------------------------|
E|--------------------------------|------------------------10------|
http://classicalguitartablature.blogspot.com/
E|--10----------------------------| 3-------- 2 0---- 0 0 2 3-- 3--|
B|13----12----12------------------| 0---- 0-------- 0--------------|
G|11----------11------11----------| 0-- 0--------------------------|
D|12--------12------12--12--------|--------------------------------|
A|10------10----10------10---- 9--|--------------------------------|
E|--------------------------------| 0-------------- 0------ 0------|
http://classicalguitartablature.blogspot.com/
E|---- 5 5---------------------- 3|-------- 3 0-- 3 2---- 3 3---- 2|
B|---- 5 5---- 5------ 5---- 8 7 0|---- 0-- 0 0-- 4-------- 4---- 0|
G|-- 5------ 5-- 5------ 5--------| 0 0---------- 2---- 2---- 2-- 0|
D|--------------------------------|------------------ 4------------|
A| 0------ 0------ 0------ 0------| 3---- 3------ 2------ 2--------|
E|--------------------------------|------------------------------ 0|
http://classicalguitartablature.blogspot.com/
E|-- 0---------------------- 3-- 3|-------- 3 0-- 3 2---- 3 3---- 2|
B|------------ 4------ 3------ 5 0|---- 0-- 0 0-- 4-------- 4---- 0|
G|------ 0-- 4------ 4---- 3------| 0 0---------- 2---- 2---- 2-- 0|
D|-- 0---- 4------ 5------ 5------|------------------ 4------------|
A|------ 6-------- 5---- 4------ 3|------ 3------ 2------ 2--------|
E|--------------------------------|------------------------------ 0|
http://classicalguitartablature.blogspot.com/
E|-- 0------------------ 2-- 3----|--------------------------------|
B|-------- 3-------- 5-- 1---- 3--| 0---------------- 5---- 7-- 8--|
G|------ 0 2---- 2-- 4-- 2---- 2--| 0-- 0------ 2---- 4---- 7-- 7--|
D|-- 0------ 2------ 5------------|------ 0-- 1-- 1-- 5---- 5-- 6--|
A|--------------------------------|--------------------------------|
E|-------- 2---- 3-------- 2-- 1 0|-------- 2------ 3------ 7-- 6--|
http://classicalguitartablature.blogspot.com/
E|------------------ 0---- 2-- 3--|-------------------------- 2----|
B| 1------------ 1-- 1---- 3------| 8-------- 7 5-- 4-- 4-- 5 1-- 7|
G| 2---- 2---- 2---- 2---- 2------| 5-- 5---- 4 4-- 2-- 4-- 4 2----|
D|---- 2---- 2--------------------|-- 9------ 7 5-- 4-- 4-- 5------|
A| 0------------------------------|-------- 5-- 3-- 2--------------|
E|-------- 3------ 2------ 1------| 0------------------ 5-- 3 2----|
http://classicalguitartablature.blogspot.com/
E|------------------------ 2------|--------------------------------|
B|-- 8-- 8---- 8---- 5---- 5 8----| 0------------ 0---- 5-- 7-- 8--|
G| 7-- 7---- 5------ 4---- 4-- 5--|------ 0-- 4-------- 7-- 7-- 7--|
D| 5-- 5---- 7---- 5---------- 7--|---- 0---- 5------ 5-- 5-- 6----|
A| 7------ 6---- 5---- 4-- 5-- 6--|-------- 5----------------------|
E|--------------------------------| 0-------------- 7------ 6------|
http://classicalguitartablature.blogspot.com/
E|--------------------------------|---------- 2--------------------|
B| 1---------- 3---- 5---- 7-- 8--| 8-------- 1 5-- 4 4---- 5-- 7 7|
G| 2---- 2---- 1------ 2-- 4-- 5--| 5-- 5---- 2 5-- 5-- 2-- 2-- 4 7|
D|---- 2---- 3------ 5---- 7-- 7--|-- 9-------- 4-- 4-- 4-- 2-- 4 5|
A| 0------ 2------ 3---- 5-- 6----|-------------------- 2-- 4-- 6--|
E|--------------------------------| 0---- 2---- 4-- 5--------------|
http://classicalguitartablature.blogspot.com/
E|--------------------------------| 7-------- 5-- 3-- 3 5 7---- 7--|
B|-- 8---- 5------------------ 8--| 8-------- 7-- 3-- 5 5-- 8-- 5--|
G|-- 5-- 5 4-- 4---------- 5-- 8--| 7-- 7---- 5-- 4-- 4 4 4 7-- 5--|
D|---- 7---- 5-- 5-- 5-- 5 7-- 7--|---- 9--------------------------|
A| 7 6---- 5------ 4-- 5-- 6-- 8--|-------- 6------ 5-- 4 3--------|
E|--------------------------------| 0---------------------- 7------|
http://classicalguitartablature.blogspot.com/
E|-- 8-- 8---------------------- 5|----------------------10-- 8-- 8|
B|-- 5-- 6---- 6------ 1-------- 5|---------- 8-- 7------ 8-- 6-- 8|
G|-- 5-- 4-- 4------ 2-- 5-- 6----|---- 5---- 7-- 7-- 7-- 9-- 5-- 9|
D|---------- 6---- 2------ 5-- 5--|---- 5---- 7-- 5-- 5------------|
A|---------------------- 7-- 6-- 5|---------------------- 0------10|
E| 5------ 4---- 3----------------|-------- 8---- 7-- 6------ 4----|
http://classicalguitartablature.blogspot.com/
E|--10-- 7------ 7----------------|-------------------- 2 3--------|
B|--10-- 8---- 8-- 8---- 8------ 8| 8-------- 7-- 5-- 5 5 3-- 8----|
G|-- 9-- 8-- 8-------- 5------ 5--| 7---- 7-- 5-- 4-- 4 4 2-- 7----|
D|------------------ 9------ 9----|---- 5---- 7-- 5-- 5------ 6-- 5|
A|-- 9---- 8------ 7------ 6------| 7------ 6------ 5 4 3 2--------|
E|--------------------------------|-------------------------- 6----|
http://classicalguitartablature.blogspot.com/
E|-- 5---- 5---------------- 3 0--|-------- 3---- 3---------- 3-- 2|
B|-- 8---- 5---------- 0---- 3 0--| 8------ 3-- 5 3-- 7------ 3----|
G|-- 5-------- 5---- 2------ 2----| 5-- 5-- 4-- 4 2-- 4---- 2-- 2--|
D|---------- 5------ 2------------| 9 9-------- 5 1-- 4 4-- 2-- 1--|
A|--------------------------------|------ 5---- 3 2----------------|
E| 5------ 3---- 2-------- 1---- 0|-------------------- 5-- 2-- 1--|
http://classicalguitartablature.blogspot.com/
E|-- 0----------------------------|-------- 3---- 3---------- 3-- 2|
B| 0------------ 0------ 0---- 5--| 8------ 3-- 5 3-- 7------ 3----|
G| 0-- 0------ 4------ 0-- 5------| 5-- 5-- 4-- 4 2-- 4---- 2-- 2--|
D|---------- 5------ 2------ 7-- 7| 9 9-------- 5 1-- 4 4-- 2-- 1--|
A|-------- 5------ 4------ 6------|------ 5---- 3 2----------------|
E| 0---------------------------- 0|-------------------- 5-- 2-- 1--|
http://classicalguitartablature.blogspot.com/
E|-- 0----------------------------|-------- 3---- 3---------- 3----|
B| 0------------ 0------ 0---- 5--| 8------ 3-- 5 3-- 7------ 3----|
G| 0-- 0------ 4------ 0-- 5------| 5-- 5-- 4-- 4 2-- 4---- 2-- 2--|
D|---------- 5------ 2------ 7-- 7| 9 9-------- 5 1-- 4 4-- 2-- 1--|
A|-------- 5------ 4------ 6------|------ 5---- 3 2-------------- 6|
E| 0---------------------------- 0|-------------------- 5-- 2-- 1--|
http://classicalguitartablature.blogspot.com/
E|--------------------------------|--------------------------------|
B| 7-------- 5--------------------|--------------------------------|
G| 5------ 4----------------------|--------------------------------|
D| 7------ 5----------------------|--------------------------------|
A|---------- 5--------------------|--------------------------------|
E|--------------------------------|--------------------------------|

0 ความคิดเห็น:

แสดงความคิดเห็น