To celebrate the anniversary, I am giving you (finally...) : iPhone LickByNeck !!!!!!

Eleanor Rigby - Beatles

Eleanor Rigby played in the key of Em.

http://classicalguitartablature.blogspot.com/
E|------------------------ 3-- 5--|-------- 3-- 2------ 0----------|
B| 5------------------ 7 5---- 3--|---- 5------ 3------ 3---- 0----|
G| 5---------- 5------ 5-- 4-- 2--|---- 4------ 2------ 2------ 0--|
D| 5---------- 5------ 7----------|--------------------------------|
A|--------------------------------|--------------------------------|
E| 8------ 7------ 5------ 3------| 2------ 3------ 2------ 1------|
http://classicalguitartablature.blogspot.com/
E|---------------------- 5---- 7--|---- 7------ 7------ 7------ 7--|
B|---------------------- 5------ 8|------ 7-------- 8---------- 8--|
G|---- 2-- 0------------ 4------ 5|------ 7-------- 9------ 9-- 9--|
D|------------ 1------ 2----------|------------------------ 9------|
A|--------------------------------|--------------------------------|
E| 0------ 1------ 2---- 3------ 5|------ 7--------10------ 9------|
http://classicalguitartablature.blogspot.com/
http://classicalguitartablature.blogspot.com/
E|------------------------ 3-- 5--|-------- 3-- 2------ 0----------|
B| 5------------------ 7 5---- 3--|---- 5------ 3------ 3---- 0----|
G| 5---------- 5------ 5-- 4-- 2--|---- 4------ 2------ 2------ 0--|
D| 5---------- 5------ 7----------|--------------------------------|
A|--------------------------------|--------------------------------|
E| 8------ 7------ 5------ 3------| 2------ 3------ 2------ 1------|
http://classicalguitartablature.blogspot.com/
E|---------------------- 5---- 7--|---- 7------ 7------ 7------ 7--|
B|---------------------- 5------ 8|------ 7-------- 8---------- 8 8|
G|---- 2-- 0------------ 4------ 5|------ 7-------- 9------ 9------|
D|------------ 1------ 2----------|------------------------ 9------|
A|--------------------------------|--------------------------------|
E| 0------ 1------ 2---- 3------ 5|------ 7--------10------ 9------|
http://classicalguitartablature.blogspot.com/
E|-------- 7-- 3------------------|-------- 7--10------ 9------ 9--|
B|----10-- 7-- 3------ 5----------| 8--10-- 8--12------12--12-- 9--|
G| 7-- 7-- 5-- 4------ 4----------| 7-- 7-- 5--11------11-- 9-- 8--|
D| 9-- 9-------------- 5----------| 9-- 9------------------10------|
A| 7------ 6------ 5------ 4-- 3--|----------------10------ 9------|
E|--------------------------------| 7------ 5----------------------|
http://classicalguitartablature.blogspot.com/
E|---- 7------ 7---- 5---- 3------|--------------------------------|
B|---- 7--10-- 7---- 7---- 310----|--------------------------------|
G|---- 8-- 7-- 5---------- 4-- 9--|---- 9------------ 7------------|
D|-------- 9------------------ 9--|---- 9---- 9-------- 7------ 7--|
A| 8------ 7---- 6-------- 5------|--------------------------------|
E|------------------------------ 9|-------- 8------ 7------ 8------|
http://classicalguitartablature.blogspot.com/
E|--------------------------------|-------- 7-- 3------------------|
B| 8--10--12--13------12-------- 8|----10-- 7-- 3------ 5----------|
G| 9-- 9--12--12------12----------| 7-- 7-- 5-- 4------ 4----------|
D| 9-- 9--12--10------13------13--| 9-- 9-------------- 5----------|
A|--------------------------------| 7------ 6------ 5------ 4-- 3--|
E| 9------10------11------13------|--------------------------------|
http://classicalguitartablature.blogspot.com/
E|-------- 7--10------ 9------ 9--|---- 7------ 7---- 5---- 3------|
B| 8--10-- 8--12------12--12-- 9--|---- 7--10-- 7---- 7---- 310----|
G| 7-- 7-- 5--11------11-- 9-- 8--|---- 8-- 7-- 5---------- 4-- 9--|
D| 9-- 9------------------10------|-------- 9------------------ 9--|
A|----------------10------ 9------| 8------ 7---- 6-------- 5------|
E| 7------ 5----------------------|------------------------------ 9|
http://classicalguitartablature.blogspot.com/
E|--------------------------------|--------------------------------|
B|--------------------------------| 8--10--12--13------12----------|
G|---- 9------------ 7------------| 9-- 9--12--12------12----------|
D|---- 9---- 9-------- 7------ 7--| 9-- 9--12--10------13------13--|
A|--------------------------------|--------------------------------|
E|-------- 8------ 7------ 8------| 9------10------11------13------|
http://classicalguitartablature.blogspot.com/
E|------------ 5------ 7------ 3--|----------------------------12--|
B|10------ 8---------- 5------ 5--|---- 5---------------- 5---- 8--|
G| 7------ 5---------- 4------ 4--|---- 3------------ 5---- 5-- 9--|
D|---- 9-- 7----------------------|---- 5------ 5------ 5-- 3------|
A| 7------ 6------ 5------ 3------| 4------ 3----------------------|
E|--------------------------------|-------------- 6-------- 5------|
http://classicalguitartablature.blogspot.com/
E|--------------------------------|--------------------------------|
B|-- 8----12--10------ 8------ 5--|--------------------------------|
G|-------- 9-- 8------ 5------ 4--|---- 4------ 4------ 4 5--------|
D|--------10--10------ 7------ 5--|---- 5------ 5------ 5------ 7--|
A|10------ 9------ 8------ 6------| 5------ 4------ 5---- 6--------|
E|--------------------------------|--------------------------------|
http://classicalguitartablature.blogspot.com/
E|------------ 5------ 7------ 3--|----------------------------15--|
B|10------ 8---------- 5------ 5--|---- 5---------------- 5----13--|
G| 7------ 5---------- 4------ 4--|---- 3------------ 5---- 5--12--|
D|---- 9-- 7----------------------|---- 5------ 5------ 5-- 3------|
A| 7------ 6------ 5------ 3------| 4------ 3--------------------10|
E|--------------------------------|-------------- 6-------- 5------|
http://classicalguitartablature.blogspot.com/
E|------12-- 7------ 5------------|--------------------------------|
B|------10-- 8------ 7------ 8----|------------------------------ 8|
G|--12-- 9-- 8------ 5------ 7----|-- 7------ 5-------- 4------ 5--|
D|--10---------------------- 5----|---- 5---- 7-------- 5------ 7--|
A|------ 9------ 8------ 6--------| 7---- 6-------- 5------ 6------|
E|--------------------------------|--------------------------------|
http://classicalguitartablature.blogspot.com/
E|-------- 7-- 3------------------|-------- 7--10------ 9------ 9--|
B|----10-- 7-- 3------ 5----------| 8--10-- 8--12------12--12-- 9--|
G| 7-- 7-- 5-- 4------ 4----------| 7-- 7-- 5--11------11-- 9-- 8--|
D| 9-- 9-------------- 5----------| 9-- 9------------------10------|
A| 7------ 6------ 5------ 4-- 3--|----------------10------ 9------|
E|--------------------------------| 7------ 5----------------------|
http://classicalguitartablature.blogspot.com/
E|---- 7------ 7---- 5---- 3------|--------------------------------|
B|---- 7--10-- 7---- 7---- 310----|--------------------------------|
G|---- 8-- 7-- 5---------- 4-- 9--|---- 9------------ 7------------|
D|-------- 9------------------ 9--|---- 9---- 9-------- 7------ 7--|
A| 8------ 7---- 6-------- 5------|--------------------------------|
E|------------------------------ 9|-------- 8------ 7------ 8------|
http://classicalguitartablature.blogspot.com/
E|--------------------------------|-------- 7-- 3------------------|
B| 8--10--12--13------12-------- 8|----10-- 7-- 3------ 5----------|
G| 9-- 9--12--12------12----------| 7-- 7-- 5-- 4------ 4----------|
D| 9-- 9--12--10------13------13--| 9-- 9-------------- 5----------|
A|--------------------------------| 7------ 6------ 5------ 4-- 3--|
E| 9------10------11------13------|--------------------------------|
http://classicalguitartablature.blogspot.com/
E|-------- 7--10------ 9------ 9--|---- 7------ 7---- 5---- 3------|
B| 8--10-- 8--12------12--12-- 9--|---- 7--10-- 7---- 7---- 310----|
G| 7-- 7-- 5--11------11-- 9-- 8--|---- 8-- 7-- 5---------- 4-- 9--|
D| 9-- 9------------------10------|-------- 9------------------ 9--|
A|----------------10------ 9------| 8------ 7---- 6-------- 5------|
E| 7------ 5----------------------|------------------------------ 9|
http://classicalguitartablature.blogspot.com/
E|--------------------------------|--------------------------------|
B|--------------------------------| 8--10--12--13------12----------|
G|---- 9------------ 7------------| 9-- 9--12--12------12----------|
D|---- 9---- 9-------- 7------ 7--| 9-- 9--12--10------13------13--|
A|--------------------------------|--------------------------------|
E|-------- 8------ 7------ 8------| 9------10------11------13------|
http://classicalguitartablature.blogspot.com/
E|------------ 5------ 7------ 3--|----------------------------12--|
B|10------ 8---------- 5------ 5--|---- 5---------------- 5---- 8--|
G| 7------ 5---------- 4------ 4--|---- 3------------ 5---- 5-- 9--|
D|---- 9-- 7----------------------|---- 5------ 5------ 5-- 3------|
A| 7------ 6------ 5------ 3------| 4------ 3----------------------|
E|--------------------------------|-------------- 6-------- 5------|
http://classicalguitartablature.blogspot.com/
E|--------------------------------|--------------------------------|
B|-- 8----12--10------ 8------ 5--|--------------------------------|
G|-------- 9-- 8------ 5------ 4--|---- 4------ 4------ 4 5--------|
D|--------10--10------ 7------ 5--|---- 5------ 5------ 5------ 7--|
A|10------ 9------ 8------ 6------| 5------ 4------ 5---- 6--------|
E|--------------------------------|--------------------------------|
http://classicalguitartablature.blogspot.com/
E|------------ 5------ 7------ 3--|----------------------------15--|
B|10------ 8---------- 5------ 5--|---- 5---------------- 5----13--|
G| 7------ 5---------- 4------ 4--|---- 3------------ 5---- 5--12--|
D|---- 9-- 7----------------------|---- 5------ 5------ 5-- 3------|
A| 7------ 6------ 5------ 3------| 4------ 3--------------------10|
E|--------------------------------|-------------- 6-------- 5------|
http://classicalguitartablature.blogspot.com/
E|------12-- 7------ 5------------|--------------------------------|
B|------10-- 8------ 7------ 8----|--------------------------------|
G|--12-- 9-- 8------ 5------ 7----|-- 7------ 5-------- 4------ 3--|
D|--10---------------------- 5----|---- 5---- 7-------- 5------ 5--|
A|------ 9------ 8------ 6--------| 7---- 6-------- 5------ 4------|
E|--------------------------------|--------------------------------|
http://classicalguitartablature.blogspot.com/
E|------------------------ 3-- 5--|-------- 3-- 2------ 0----------|
B| 5------------------ 7 5---- 3--|---- 5------ 3------ 3---- 0----|
G| 5---------- 5------ 5-- 4-- 2--|---- 4------ 2------ 2------ 0--|
D| 5---------- 5------ 7----------|--------------------------------|
A|--------------------------------|--------------------------------|
E| 8------ 7------ 5------ 3------| 2------ 3------ 2------ 1------|
http://classicalguitartablature.blogspot.com/
E|---------------------- 5---- 7--|---- 7------ 7------ 7------ 7--|
B|---------------------- 5------ 8|------ 7-------- 8---------- 8--|
G|---- 2-- 0------------ 4------ 5|------ 7-------- 9------ 9-- 9--|
D|------------ 1------ 2----------|------------------------ 9------|
A|--------------------------------|--------------------------------|
E| 0------ 1------ 2---- 3------ 5|------ 7--------10------ 9------|
http://classicalguitartablature.blogspot.com/
E|------------------------ 3-- 5--|-------- 3-- 2------ 0----------|
B| 5------------------ 7 5---- 3--|---- 5------ 3------ 3---- 0----|
G| 5---------- 5------ 5-- 4-- 2--|---- 4------ 2------ 2------ 0--|
D| 5---------- 5------ 7----------|--------------------------------|
A|--------------------------------|--------------------------------|
E| 8------ 7------ 5------ 3------| 2------ 3------ 2------ 1------|
http://classicalguitartablature.blogspot.com/
E|---------------------- 5---- 7--|---- 7------ 7------ 7------ 7--|
B|---------------------- 5------ 8|------ 7-------- 8---------- 8--|
G|---- 2-- 0------------ 4------ 5|------ 7-------- 9------ 9------|
D|------------ 1------ 2----------|------------------------ 9------|
A|--------------------------------|--------------------------------|
E| 0------ 1------ 2---- 3------ 5|------ 7--------10------ 9------|
http://classicalguitartablature.blogspot.com/
E|---- 5-- 7-- 3---------- 0------|--------------------------------|
B| 8-- 8-- 7-- 4---------- 3------|--------------------------------|
G| 7-- 7-- 5-- 3---------- 2------|--------------------------------|
D| 7-- 5-- 4-------------- 0------|--------------------------------|
A|--------------------------------|--------------------------------|
E| 8-- 6-- 4-- 2---------- 1------|--------------------------------|
http://classicalguitartablature.blogspot.com/
E|--------------------------------|--------------------------------|
B|--------------------------------|--------------------------------|
G|--------------------------------|--------------------------------|
D|--------------------------------|--------------------------------|
A|--------------------------------|--------------------------------|
E|--------------------------------|--------------------------------|
http://classicalguitartablature.blogspot.com/

0 ความคิดเห็น:

แสดงความคิดเห็น