To celebrate the anniversary, I am giving you (finally...) : iPhone LickByNeck !!!!!!

How Deep Is Your Love (EASY)

How Deep Is Your Love- EASY Arrangement played in the key of D.
http://classicalguitartablature.blogspot.com/

http://classicalguitartablature.blogspot.com/
E|-------- 2----------------------|--------------------------------|
B|------ 3-- 3-- 5-- 5-------- 3--|--------------------------------|
G|---------- 2-- 2-- 2------ 0----|------ 0---------- 0------ 0----|
D|---- 4-------- 2---- 2------ 0--|------ 0------------ 0------ 0--|
A| 5------------------------------|------------------------------ 2|
E|---------------- 2--------------| 0------------ 0----------------|
http://classicalguitartablature.blogspot.com/
E|------ 2------------------------|---------------------------- 0--|
B|---------- 3---- 5-- 5------ 3--|---------------------- 3--------|
G|-- 2------------ 2-- 2------ 0--|-------- 0-------- 2------------|
D|-- 4------------ 2-- 2------ 0--|-------- 0----------------------|
A|--------------------------------|--------------------------------|
E|---------------- 2--------------| 0-------------- 0--------------|
http://classicalguitartablature.blogspot.com/
E| 2------ 2----------------------|------------------------ 2-- 3--|
B| 3------ 3-- 3-- 5-- 5------ 3--|------------ 3-- 4-- 5------ 0--|
G| 2-------------- 2-- 2------ 0--|-------- 0------ 2---------- 0--|
D|---- 4---------- 2-- 2------ 0--|---- 0---------- 4--------------|
A| 5------------------------------|---------------- 2--------------|
E|---------------- 2--------------| 0---------------------------- 0|
http://classicalguitartablature.blogspot.com/
E|------ 3---- 0 2-- 2------------|---------------------------- 5--|
B|------ 0-- 0-- 3-- 3------ 5----|------ 5------ 7---- 8------ 7--|
G|-- 0---------- 4-- 4------ 4----|------ 4------ 6---- 6------ 6--|
D|------------------------ 4-- 5--|------ 5------ 5---- 5----------|
A|--------------------------------| 0-------------- 0--------------|
E|-------------- 3----------------|--------------------------------|
http://classicalguitartablature.blogspot.com/
E|---- 5-- 5---------- 7------ 5--|---- 2---------------- 2------ 3|
B|-------- 7-- 710------------ 3--|------ 5---- 3---- 5-- 5------ 0|
G|-------- 6-- 6 9------------ 2--|---- 2 2---- 2---- 2------------|
D|------------ 7-- 7--------------|------ 4---- 4---- 4------ 4----|
A| 5-------------- 9------------ 2|--------------------------------|
E|--------------------------------|---------------- 2--------------|
http://classicalguitartablature.blogspot.com/
E|-- 3-- 3-- 0-- 2-- 2------------|--------------------------------|
B|-- 0-- 0-- 0-- 3-- 3-------- 5--|------------ 5------ 3-- 3------|
G| 0 0-- 0-- 0-- 4-- 4-------- 4--|-------- 4---------- 4-- 4------|
D|---------------------- 4---- 5--|---- 5-------------- 5-- 5------|
A|--------------------------------|--------------------------------|
E| 0------------ 3-------------- 5|---------------- 5--------------|
http://classicalguitartablature.blogspot.com/
E|--------------------10----------|12-- 9------------------ 9------|
B|12--12--12--12------12--12------|10--10--12--10------12----------|
G|11------11--11------11--11------| 9-- 9-- 9-- 9------ 9----------|
D|12--12--12--12----------12--12--|------------11------11------11--|
A|10--------------10--------------| 9-------------- 9--------------|
E|--------------------------------|--------------------------------|
http://classicalguitartablature.blogspot.com/
E|10-- 7-------- 7----------------| 5-- 2------ 0-------- 0--------|
B| 8-- 8----10-- 8----10---- 7----| 3-- 3------ 3---- 3---------- 7|
G| 7-- 7---- 7-- 7---- 7------ 7--|------------------------------ 9|
D|---------- 9-------- 9---- 9----|------------------------------ 7|
A| 7-------------- 7--------------| 3---------------------------- 9|
E|--------------------------------|--------------------------------|
http://classicalguitartablature.blogspot.com/
E|---------- 7--------10----14----|----------14--14--14--14--14----|
B|------10------------------12----|------12--12--12--12--12--12----|
G|----------------------------12--|----------12--12------12--12----|
D|--------------------------------|--------------------------------|
A|------------------------------ 0|--------------------------------|
E|--------------------------------|--------------------------------|
http://classicalguitartablature.blogspot.com/
E|--------------------------------|--------------------------------|
B|-------- 3-- 2------------------|---- 3------ 2------------------|
G| 2-- 2------ 2------ 4------ 2--|------------ 2------ 4----------|
D| 4---------- 4-------------- 4--|--------------------------------|
A| 5-------------- 5--------------| 5-------------- 5--------------|
E|--------------------------------|--------------------------------|
http://classicalguitartablature.blogspot.com/
E|---------- 2------ 3------------|--------------------------------|
B|-- 0-- 3-- 3------ 3---------- 7|-- 5------------ 7---- 8--------|
G| 2------ 0----------------------| 7 7------ 7---- 7--------------|
D| 0---------------------- 0------| 5 5-- 5------ 5---- 5------ 5--|
A|--------------------------------|--------------------------------|
E| 3------------ 3----------------| 6-------------- 6--------------|
http://classicalguitartablature.blogspot.com/
E| 5-- 5-- 5---- 5---- 7----------|-------------------- 7---- 8----|
B| 7------ 7-- 7-- 7----------10--|------------1010----------------|
G| 6------ 6-- 6-- 6------ 6-- 9--|-------- 9------ 9--------------|
D|------------ 7-------------- 7--|---- 7---------- 7--------------|
A| 5-------------- 5--------------|--------------------------------|
E|--------------------------------| 8-------------- 8--------------|
http://classicalguitartablature.blogspot.com/
E|------------------------ 7------| 8---- 8-------- 7-- 5----------|
B|10----------------10------------| 7---- 7-------- 7-- 7------ 8--|
G|---------- 8------ 8------------| 5-- 5------ 5-- 5---------- 7--|
D| 7---- 7---------- 7------ 7----|---------------------------- 5--|
A|--------------------------------| 6-------------- 6--------------|
E| 7------------ 7----------------|--------------------------------|
http://classicalguitartablature.blogspot.com/
E|---------------------- 5---- 6--|------ 6------ 5-- 3------ 2----|
B|-------------------- 8------ 5--|------ 5------ 5-- 5------ 3----|
G|---------- 7---------------- 3--|---------- 3-- 3------------ 2--|
D|-------- 5-------- 5------------|-- 5------------ 5---- 5--------|
A|--------------------------------|--------------------------------|
E| 0------------ 0----------------| 3------------ 3----------------|
http://classicalguitartablature.blogspot.com/
E|------ 2------------------------|--------------------------------|
B|------ 3-- 3-- 5---- 5------ 3--|--------------------------------|
G|---------- 2---- 2-- 2---- 0----|------ 0---------- 0------ 0----|
D|---- 4---- 4---- 2-- 2-- 2-- 0--|------ 0------------ 0------ 0--|
A| 5------------------------------|------------------------------ 2|
E|---------------- 2--------------| 0------------ 0----------------|
http://classicalguitartablature.blogspot.com/
E|------ 2------------------------|---------------------------- 0--|
B|---------- 3---- 5-- 5------ 3--|---------------------- 3--------|
G|-- 2------------ 2-- 2------ 0--|-------- 0-------- 2------------|
D|-- 4------------ 2-- 2------ 0--|-------- 0----------------------|
A|--------------------------------|--------------------------------|
E|---------------- 2--------------| 0-------------- 0--------------|
http://classicalguitartablature.blogspot.com/
E|--------------------------------|--------------------------------|
B|---- 7--------------------------|--------------------------------|
G|-- 6----------------------------|--------------------------------|
D|-- 7----------------------------|--------------------------------|
A| 5------------------------------|--------------------------------|
E|--------------------------------|--------------------------------|
http://classicalguitartablature.blogspot.com/

0 ความคิดเห็น:

แสดงความคิดเห็น