To celebrate the anniversary, I am giving you (finally...) : iPhone LickByNeck !!!!!!

I Will - Beatles

Beatles' hit fingerstyle chord melody guitar arrangement played in the key of F.

I Will played in the key of F.
http://classicalguitartablature.blogspot.com/
E|-------------------------- 1----|------ 8---- 5------------------|
B|-------------------------- 4----| 6------ 5-- 6---- 6------ 8----|
G| 5---------- 5-- 3-------- 3----| 5------ 5-- 5---- 7------ 7----|
D| 5---------- 4-- 3--------------|-- 7-------------- 7------ 5----|
A|--------------------------------| 8------ 7---- 5----------------|
E| 5------ 4------ 3---- 2--------|---------------------- 8------ 6|
http://classicalguitartablature.blogspot.com/
E|-- 6---------------------- 1----|------ 8---- 5-------------- 8--|
B|-- 6---------------------- 4----| 6------ 5-- 6------ 6------10--|
G|---- 5-------- 3---------- 3----| 5------ 5-- 5------ 3------ 9--|
D|---------- 4------ 2------------|-- 7---------------- 5----------|
A|--------------------------------| 8------ 7---- 5-------- 4------|
E|------ 4-------- 3---- 2--------|--------------------------------|
http://classicalguitartablature.blogspot.com/
E|-------------- 8------13------10|---------------------------- 5--|
B|-------------- 6------11------ 6|--------11-- 8----13-------- 6--|
G|---- 9---- 7------ 6---- 8-- 8 7|-- 7----10--10----12-------- 5--|
D|----10---- 6--------------------|-------- 8-- 8------11----------|
A|--------------------------------|------------------------------ 5|
E| 8---- 7------ 5-------- 8------| 6------ 8------10----11--------|
http://classicalguitartablature.blogspot.com/
E|------------------ 8--13------10|--------------------------------|
B|---- 6------------ 8--10------11|------11---- 8------ 5------ 6--|
G|---- 6------------ 7-- 8-- 8--10|------ 8---- 7------ 5------ 3--|
D|---- 5---- 5--------------------|----1210---- 8------ 8------ 3--|
A|-------- 6---- 7------ 8------10|-------- 9---- 8-------- 7------|
E|--------------------------------|--------------------------------|
http://classicalguitartablature.blogspot.com/
E|--------------------------------|---------------------------- 1--|
B|--------------------------------|-------------------------- 4----|
G|---------- 3---- 7-------- 5-- 5|---------- 5-- 3------------ 3--|
D|---- 3------ 3------ 8---- 5----|-- 5-- 4-- 4------ 3-------- 1--|
A| 5------ 4----------------------|--------------------------------|
E|---------------- 8---- 6------ 5|------ 4------ 3-------- 2------|
http://classicalguitartablature.blogspot.com/
E|------ 8---- 5------------------|-- 6---------------------- 1----|
B| 6------ 5-- 6---- 6------ 8----|-- 6---------------------- 4----|
G| 5------ 5-- 5---- 7------ 7----|---- 5-------- 3---------- 3----|
D|---- 7------------ 7------ 5----|---------- 4------ 2------------|
A| 8------ 7---- 5----------------|--------------------------------|
E|---------------------- 8------ 6|------ 4-------- 3---- 2--------|
http://classicalguitartablature.blogspot.com/
E|------ 8---- 5-------------- 8--|-------------- 8------13------10|
B| 6------ 5-- 6------ 6------10--|-------------- 6------11------ 6|
G| 5------ 5-- 5------ 3------ 9--|---- 9---- 7------ 6---- 8-- 8 7|
D|-- 7---------------- 5----------|----10---- 6--------------------|
A| 8------ 7---- 5-------- 4------|--------------------------------|
E|--------------------------------| 8---- 7------ 5-------- 8------|
http://classicalguitartablature.blogspot.com/
E|---------------------------- 5--|------------------ 8--13------10|
B|--------11-- 8----13-------- 6--|---- 6------------ 8--10------11|
G|-- 7----10--10----12-------- 5--|---- 6------------ 7-- 8-- 8--10|
D|-------- 8-- 8------11----------|---- 5---- 5--------------------|
A|------------------------------ 5|-------- 6---- 7------ 8------10|
E| 6------ 8------10----11--------|--------------------------------|
http://classicalguitartablature.blogspot.com/
E|--------------------------------|------------------------------ 6|
B|------11---- 8------ 5------ 6--|-------------------------- 6-- 3|
G|------ 8---- 7------ 5------ 5--|---- 3---- 2---- 5-- 5---- 5-- 3|
D|----1210---- 8------ 8------ 3--|---- 5---- 3---- 5-- 3---- 4----|
A|-------- 9---- 8-------- 7------| 5---- 4---- 3------------------|
E|--------------------------------|---------------- 6-- 5---- 4----|
http://classicalguitartablature.blogspot.com/
E|---- 5-- 6-- 8------10------ 5--|-------------------- 5-------- 6|
B|---- 3-- 6-- 5------10------ 6--|------------ 6------ 6-------- 6|
G|---- 3-- 5-- 5------ 9------ 5--|---- 7------ 7------ 6-------- 5|
D|------------ 5------------------|---- 7------ 7------------ 5----|
A|--------------------------------| 5------------------------------|
E| 3------ 5------ 6------ 8------|------ 8-------- 7---- 5--------|
http://classicalguitartablature.blogspot.com/
E|---- 5------ 6 8--------10------|--------------------------------|
B|---- 5------ 4 8-------- 9------|10------------------------------|
G|---- 4------ 3---- 7---- 7-- 7--| 9------------ 6------------ 310|
D|--------------------------------|----10----10-------- 5------ 5--|
A|---------------- 8------ 7------| 8---- 7------ 6-------- 4------|
E| 4-- 3------ 2------------------|--------------------------------|
http://classicalguitartablature.blogspot.com/
E|------------ 8------10------ 5--|-------------------- 5-------- 3|
B|11--1011----10------10------ 6--|---- 3------ 6------ 3-------- 0|
G|----10--10--10------10------ 6--|---- 5------ 5------ 4------ 4 0|
D| 8-- 8 8------------------------|---- 5------ 4-------------- 3--|
A|--------------------------------|--------------------------------|
E|10------ 9------ 8------ 7------| 6------ 5------ 4------ 3------|
http://classicalguitartablature.blogspot.com/
E|---- 5---- 7-- 7------ 8------ 8|---------------------------- 1--|
B|---- 8---- 7-- 6------11--------|11-------------------------- 4--|
G|---- 5---- 6------ 7--10--------|10------ 5------ 5------ 3-- 3--|
D| 0-------- 5---------------- 8--|---- 8------ 5-- 5-- 4-- 3-- 1--|
A|---------- 6-- 5----------------|--------------------------------|
E| 1---- 0-------------- 9--------| 8------ 6------ 5-- 4-- 3-- 2--|
http://classicalguitartablature.blogspot.com/
E|------ 8---- 5------------------|-- 6---------------------- 1----|
B| 6------ 5-- 6---- 6------ 8----|-- 6---------------------- 4----|
G| 5------ 5-- 5---- 7------ 7----|---- 5-------- 3---------- 3----|
D|---- 7------------ 7------ 5----|---------- 4------ 2------------|
A| 8------ 7---- 5----------------|--------------------------------|
E|---------------------- 8------ 6|------ 4-------- 3---- 2--------|
http://classicalguitartablature.blogspot.com/
E|------ 8---- 5-------------- 8--|-------------- 8------13------10|
B| 6------ 5-- 6------ 6------10--|-------------- 6------11------ 6|
G| 5------ 5-- 5------ 3------ 9--|---- 9---- 7------ 6---- 8-- 8 7|
D|-- 7---------------- 5----------|----10---- 6--------------------|
A| 8------ 7---- 5-------- 4------|--------------------------------|
E|--------------------------------| 8---- 7------ 5-------- 8------|
http://classicalguitartablature.blogspot.com/
E|---------------------------- 5--|------------------ 8--13------10|
B|--------11-- 8----13-------- 6--|---- 6------------ 8--10------11|
G|-- 7----10--10----12-------- 5--|---- 6------------ 7-- 8-- 8--10|
D|-------- 8-- 8------11----------|---- 5---- 5--------------------|
A|------------------------------ 5|-------- 6---- 7------ 8------10|
E| 6------ 8------10----11--------|--------------------------------|
http://classicalguitartablature.blogspot.com/
E|-------------------- 8------ 5--|---------------------- 8--13--10|
B|------11---- 8------ 8------ 6--|---- 6---------------- 8-- 9-- 8|
G|------ 8---- 7------ 7------ 6--|---- 5---------------- 8-- 8-- 7|
D|----1210---- 8------------------|---- 3------ 3---- 5------------|
A|-------- 9---- 8-------- 7------| 6------ 5---- 4----------------|
E|--------------------------------|------------------------ 8-- 7 6|
http://classicalguitartablature.blogspot.com/
E|--------------------------------|13--10------------13--------10--|
B|--------11-- 8------13----------|10--13------11------11------11--|
G|---- 7--10--10------12----------|10--12------10------10------10--|
D|-------- 8-- 8------11------11--|------------11------------------|
A|--------------------------------|--------------------------------|
E|-------- 8------ 9------11------|10--12------11-------- 9--------|
http://classicalguitartablature.blogspot.com/
E|-------------------- 0----------| 1------------------------------|
B|----11---- 8-------- 1----------| 2---- 2------------ 2----------|
G|----10------10------ 1------ 1--| 1---- 1---------- 1------ 1----|
D|---- 8------ 8-------------- 0--|-------- 3---------- 3---- 3----|
A|--------------------------------|--------------------------------|
E| 8---- 9------10-------- 0------| 1-------------- 4------------ 9|
http://classicalguitartablature.blogspot.com/
E|--------------------------------|13--------13--------------------|
B|---------------------- 6--------|10----10------------------10----|
G|-- 6------ 6------ 6---- 7------|---- 8------------------10------|
D|-- 6------ 6------ 5-------- 6--|------------------10------------|
A|-------------- 6-------- 7------| 8------------------------------|
E|--------------------------------|----------------11--------------|
http://classicalguitartablature.blogspot.com/
E|------------------------------ 6|---- 5-- 6-- 8------10------ 5--|
B|------------------------------ 3|---- 3-- 6-- 5------10------ 6--|
G| 8------------ 5-------------- 3|---- 3-- 5-- 5------ 9------ 5--|
D|---- 7---- 7------ 4------ 4----|------------ 5------------------|
A|--------------------------------|--------------------------------|
E| 8---- 7------ 5------ 4--------| 3------ 5------ 6------ 8------|
http://classicalguitartablature.blogspot.com/
E|-------------------- 5----------|---------- 0------------ 3------|
B|------------ 6------ 6----------|-- 1-- 3---- 1-- 6------ 6------|
G|---- 7------ 7------ 6-------- 3|-- 2-- 3---- 0-- 3--------------|
D|---- 7------ 7------------ 5-- 3|-- 1-- 3------------ 7------ 7--|
A| 5------------------------------|---------------- 5------ 4------|
E|------ 8-------- 7---- 5--------| 3-- 2-- 1-- 0------------------|
http://classicalguitartablature.blogspot.com/
E|-- 5----------------------------|--------------------------------|
B| 6------------------------------|--------------------------------|
G| 5------------------------------|--------------------------------|
D|--------------------------------|--------------------------------|
A| 3------------------------------|--------------------------------|
E|--------------------------------|--------------------------------|
http://classicalguitartablature.blogspot.com/

0 ความคิดเห็น:

แสดงความคิดเห็น