To celebrate the anniversary, I am giving you (finally...) : iPhone LickByNeck !!!!!!

I'll Never Fall In Love Again (EASY)

I'll Never Fall In Love Again - EASY ARRANGEMENT played in the key of D.

http://classicalguitartablature.blogspot.com/
E|---------- 5------ 5------ 5-- 5|---- 7---- 3------ 2------ 0----|
B|------ 7---- 7---- 7------ 7-- 3|---- 3---- 3------ 3------ 3----|
G|------ 6---------- 6------ 6-- 4|---- 4-- 4 0-------- 0---- 0----|
D|-- 7----------------------------|--------------------------------|
A| 5------------------------------|------------------------------ 5|
E|---------------- 5--------------| 3------------ 3----------------|
http://classicalguitartablature.blogspot.com/
E|---------- 5------ 5------ 5--10|--------------------------------|
B|------ 7-- 7------ 7------ 7--10|--10----------------------------|
G|------ 6---------- 6-- 6------12|--12------12------11------ 9-- 7|
D|---- 7--------------------------|--------------12----------------|
A|------------------------------10|------10---------------------- 5|
E|-------------- 5----------------|--------------------------------|
http://classicalguitartablature.blogspot.com/
http://classicalguitartablature.blogspot.com/
E|--------------------------------|------------------------------ 2|
B|---- 5-- 7----------------------|------------ 3-------------- 3 2|
G|------------------------ 7------|-------- 4-------------- 4------|
D|------------ 7------ 7------ 7--|---- 5-------------- 5----------|
A|--------------------------------|------------------------------ 5|
E|---------------- 5--------------| 5-------------- 5--------------|
http://classicalguitartablature.blogspot.com/
E|-------- 2------ 5------ 5------|--------------------------------|
B|-------- 2-------------- 2------| 3-- 3------ 7------------------|
G| 2-------------- 2--------------| 2-- 2------ 5-------- 5--------|
D|---- 4---- 4-------- 2------ 2--| 4------ 4 7-------- 7---- 7----|
A|--------------------------------| 2---------- 5 5----------------|
E|---------------- 2--------------|--------------------------------|
http://classicalguitartablature.blogspot.com/
E|------------ 3-------------- 3--| 3-- 5------ 2-------- 0--------|
B| 0---------- 3---------- 3------| 0-- 0------ 0---------------- 2|
G| 0------ 0---------- 2----------| 0------ 0-------- 0------ 0-- 2|
D|---- 0--------------------------|--------------------------------|
A|--------------------------------|---------------- 0--------------|
E| 3-------------- 2--------------| 0---------------------------- 2|
http://classicalguitartablature.blogspot.com/
E|-------------- 5------ 5--------|------------------------------ 7|
B|-------- 2---- 2-------- 2----10|-------- 7-- 8--------10------ 8|
G|-------- 2---------------- 2-- 7|-------- 7-- 8---------------- 7|
D|-- 2-------- 2------ 2----------| 7-- 7------ 8---- 8------ 8----|
A|---------------- 4--------------|-------------- 8----------------|
E|--------------------------------| 7------------------------------|
http://classicalguitartablature.blogspot.com/
E|--------------------------------| 3-- 2-- 3-- 2-- 3------ 0------|
B|------------ 8-------------- 8--| 0-- 0-- 0-- 0-- 0--------------|
G|-------- 7-------------- 7------| 0------ 0-- 0-- 0-- 0---- 0----|
D|---- 9-------------- 9----------|--------------------------------|
A|--------------------------------|--------------------------------|
E| 0-------------- 0--------------| 0-------------- 0--------------|
http://classicalguitartablature.blogspot.com/
E|--------------------------------|------------------ 5-- 5-- 5-- 7|
B| 6---------- 6------ 5-- 6-- 7--|------------ 7-- 7------------ 7|
G| 4------ 4---------- 4------ 6--|-------- 6------ 6------------ 7|
D|---- 3-------------- 3-- 3-- 7--|---- 7---------- 7--------------|
A|--------------------------------| 5-------------- 5------------10|
E| 3-------------- 3--------------|--------------------------------|
http://classicalguitartablature.blogspot.com/
E|---------------- 5-- 3-- 2-- 0--|--------------------------------|
B|---------- 7---- 0-- 0-- 0-- 0--| 3---- 2-------- 3--------------|
G|------ 7-------- 0-- 0-- 0-- 0--| 2------ 2------ 2---- 2--------|
D|---- 9--------------------------| 2-- 2------ 2------ 4------ 4--|
A|--------------------------------| 0-------------- 5--------------|
E|---------------- 0--------------|--------------------------------|
http://classicalguitartablature.blogspot.com/
E|------------------------------ 2|-------- 2------ 5------ 5------|
B|------------ 3-------------- 3 2|-------- 2-------------- 2------|
G|-------- 4-------------- 4------| 2-------------- 2--------------|
D|---- 5-------------- 5----------|---- 4---- 4-------- 2------ 2--|
A| 0-------------- 0------------ 5|--------------------------------|
E|--------------------------------|---------------- 2--------------|
http://classicalguitartablature.blogspot.com/
E|--------------------------------|------------ 3-------------- 3--|
B| 3-- 3------ 7------------------| 0---------- 3---------- 3------|
G| 2-- 2------ 5-------- 5--------| 0------ 0---------- 2----------|
D| 4------ 4 7-------- 7---- 7----|---- 0--------------------------|
A| 2---------- 5 5----------------|--------------------------------|
E|--------------------------------| 3-------------- 2--------------|
http://classicalguitartablature.blogspot.com/
E| 3-- 5------ 2-------- 0--------|-------------- 5------ 5--------|
B| 0-- 0------ 0---------------- 2|-------- 2---- 2-------- 2----10|
G| 0------ 0-------- 0------ 0-- 2|-------- 2---------------- 2-- 7|
D|--------------------------------|-- 2-------- 2------ 2----------|
A|---------------- 0--------------|---------------- 4--------------|
E| 0---------------------------- 2|--------------------------------|
http://classicalguitartablature.blogspot.com/
E|------------------------------ 7|--------------------------------|
B|-------- 7-- 8--------10------ 8|------------ 8-------------- 8--|
G|-------- 7-- 8---------------- 7|-------- 7-------------- 7------|
D| 7-- 7------ 8---- 8------ 8----|---- 9-------------- 9----------|
A|-------------- 8----------------|--------------------------------|
E| 7------------------------------| 0-------------- 0--------------|
http://classicalguitartablature.blogspot.com/
E| 3-- 2-- 3-- 2-- 3------ 0------|--------------------------------|
B| 0-- 0-- 0-- 0-- 0--------------| 6---------- 6------ 5-- 6-- 7--|
G| 0------ 0-- 0-- 0-- 0---- 0----| 4------ 4---------- 4------ 6--|
D|--------------------------------|---- 3-------------- 3-- 3-- 7--|
A|--------------------------------|--------------------------------|
E| 0-------------- 0--------------| 3-------------- 3--------------|
http://classicalguitartablature.blogspot.com/
E|------------------ 5-- 5-- 5-- 7|---------------- 5-- 3-- 2-- 0--|
B|------------ 7-- 7------------ 7|---------- 7---- 0-- 0-- 0-- 0--|
G|-------- 6------ 6------------ 7|------ 7-------- 0-- 0-- 0-- 0--|
D|---- 7---------- 7--------------|---- 9--------------------------|
A| 5-------------- 5------------10|--------------------------------|
E|--------------------------------|---------------- 0--------------|
http://classicalguitartablature.blogspot.com/
E|--------------------------------|-------- 5------ 3-- 2----------|
B| 3---- 2-------- 3--------------|-------- 2------ 2-- 2-- 5-- 3--|
G| 2------ 2------ 2---- 2--------|------------ 2-- 2-- 2-- 2-- 2--|
D| 2-- 2------ 2------ 4------ 4--|---- 2------------------ 2-- 2--|
A| 0-------------- 5--------------| 0-------------- 0--------------|
E|--------------------------------|--------------------------------|
http://classicalguitartablature.blogspot.com/
E|--------------------------------|--------------------------------|
B| 5------ 5-------- 3---------- 3|------------------------------ 5|
G| 4------ 4---------- 4------ 4 2|------------ 2---------- 2---- 4|
D| 5---------------------- 5------| 4---- 4------------ 4------ 4 5|
A| 0-------------- 0--------------| 5------------ 5----------------|
E|--------------------------------|--------------------------------|
http://classicalguitartablature.blogspot.com/
E|--------------------------------| 2-- 2------------------------ 2|
B|------ 5-- 5---- 5------ 3------| 3-- 3------ 3---------------- 2|
G|------ 4-- 4---- 4------ 4------| 2-- 2------ 2---------- 2---- 2|
D|------ 5-- 5---- 5-- 5------ 5--|------------ 4------ 4------ 4 4|
A| 0-------------- 0--------------| 5-------------- 5--------------|
E|--------------------------------|------------------------------ 2|
http://classicalguitartablature.blogspot.com/
E|------ 2---- 4-- 2---- 2---- 4--| 2---- 2---- 4-- 5---- 4---- 2--|
B|---------------- 2--------------| 2-------------- 2---- 2---- 2--|
G|---------------- 2--------------| 2-------------- 2---- 2---- 2--|
D|---------------- 3--------------| 2------------------------------|
A|--------------------------------|---------------- 2--------------|
E|---------------- 2--------------| 2------------------------------|
http://classicalguitartablature.blogspot.com/
E| 0-- 0------ 0---- 0---- 0-- 0--| 5-- 5-- 7-- 9------ 7 5------ 2|
B| 0-- 0------ 0---- 0---- 0-- 0--| 5-- 5-- 5-- 5------ 5 5------ 2|
G| 0-- 0------ 0---- 0---- 0-- 0--| 6-- 6-- 6-- 6------ 6 6---- 6--|
D|--------------------------------|--------------------------------|
A|--------------------------------| 0-------------- 0------------ 5|
E| 0-------------- 0--------------|--------------------------------|
http://classicalguitartablature.blogspot.com/
E|-------- 2------ 5------ 5------|--------------------------------|
B|-------- 2-------------- 2------| 3-- 3------ 7------------------|
G| 2-------------- 2--------------| 2-- 2------ 5-------- 5--------|
D|---- 4---- 4-------- 2------ 2--| 4------ 4 7-------- 7---- 7----|
A|--------------------------------| 2---------- 5 5----------------|
E|---------------- 2--------------|--------------------------------|
http://classicalguitartablature.blogspot.com/
E|------------ 3-------------- 3--| 3-- 5------ 2-------- 0--------|
B| 0---------- 3---------- 3------| 0-- 0------ 0---------------- 2|
G| 0------ 0---------- 2----------| 0------ 0-------- 0------ 0-- 2|
D|---- 0--------------------------|--------------------------------|
A|--------------------------------|---------------- 0--------------|
E| 3-------------- 2--------------| 0---------------------------- 2|
http://classicalguitartablature.blogspot.com/
E|-------------- 5------ 5--------|------------------------------ 7|
B|-------- 2---- 2-------- 2----10|-------- 7-- 8--------10------ 8|
G|-------- 2---------------- 2-- 7|-------- 7-- 8---------------- 7|
D|-- 2-------- 2------ 2----------| 7-- 7------ 8---- 8------ 8----|
A|---------------- 4--------------|-------------- 8----------------|
E|--------------------------------| 7------------------------------|
http://classicalguitartablature.blogspot.com/
E|--------------------------------| 3-- 2-- 3-- 2-- 3------ 0------|
B|------------ 8-------------- 8--| 0-- 0-- 0-- 0-- 0--------------|
G|-------- 7-------------- 7------| 0------ 0-- 0-- 0-- 0---- 0----|
D|---- 9-------------- 9----------|--------------------------------|
A|--------------------------------|--------------------------------|
E| 0-------------- 0--------------| 0-------------- 0--------------|
http://classicalguitartablature.blogspot.com/
E|--------------------------------|------------------ 5-- 5-- 5-- 7|
B| 6---------- 6------ 5-- 6-- 7--|------------ 7-- 7------------ 7|
G| 4------ 4---------- 4------ 6--|-------- 6------ 6------------ 7|
D|---- 3-------------- 3-- 3-- 7--|---- 7---------- 7--------------|
A|--------------------------------| 5-------------- 5------------10|
E| 3-------------- 3--------------|--------------------------------|
http://classicalguitartablature.blogspot.com/
E|---------------- 5-- 3-- 2-- 0--|--------------------------------|
B|---------- 7---- 0-- 0-- 0-- 0--| 3---- 2-------- 3--------------|
G|------ 7-------- 0-- 0-- 0-- 0--| 2------ 2------ 2---- 2--------|
D|---- 9--------------------------| 2-- 2------ 2------ 4------ 4--|
A|--------------------------------| 0-------------- 5--------------|
E|---------------- 0--------------|--------------------------------|
http://classicalguitartablature.blogspot.com/
E| 2-- 5-- 5-- 5-- 7--------------| 5-- 3-- 2-- 0------------------|
B| 3-- 3-- 3-- 3-- 7---------- 7--| 0-- 0-- 0-- 0-- 3---- 2--------|
G| 2-- 2-- 2-- 2-- 7------ 7------| 0-- 0-- 0-- 0-- 2------ 2------|
D|-------------------- 9----------|---------------- 2-- 2------ 2--|
A|----------------10--------------|---------------- 0--------------|
E| 2------------------------------| 0------------------------------|
http://classicalguitartablature.blogspot.com/
E|---------------- 2-- 5-- 5-- 5--| 7-------------- 5-- 3-- 2-- 0--|
B| 3-------------- 3-- 3-- 3-- 3--| 7---------- 7-- 0-- 0-- 0-- 0--|
G| 2---- 2-------- 2-- 2-- 2-- 2--| 7------ 7------ 0-- 0-- 0-- 0--|
D|---- 4------ 4------------------|---- 9--------------------------|
A| 5------------------------------|10------------------------------|
E|---------------- 2--------------|---------------- 0--------------|
http://classicalguitartablature.blogspot.com/
E|--------------------------------|--------------------------------|
B| 3---------- 3-- 2--------------| 3------------ 3----------------|
G| 2------ 2------ 2------ 2------| 2-------------- 2--------------|
D| 2-- 2-------------- 2------ 2--| 4-------------- 4--------------|
A| 0-------------- 0--------------| 5-------------- 5--------------|
E|--------------------------------|--------------------------------|
http://classicalguitartablature.blogspot.com/
E|--------------------------------|--------------------------------|
B|--------------------------------|--------------------------------|
G|--------------------------------|--------------------------------|
D|--------------------------------|--------------------------------|
A|--------------------------------|--------------------------------|
E|--------------------------------|--------------------------------|
http://classicalguitartablature.blogspot.com/

0 ความคิดเห็น:

แสดงความคิดเห็น