To celebrate the anniversary, I am giving you (finally...) : iPhone LickByNeck !!!!!!

Imagine - John Lennon

Imagine played in the key of C.

http://classicalguitartablature.blogspot.com/
E|--------------------------------|------------------------ 5 6-- 8|
B| 8---------- 8------ 8----------| 5---------------------- 5 6----|
G| 5---------- 7---- 5---- 3 3----| 5---- 5---- 5------ 5 5-- 4----|
D|---- 5---- 5---- 5------ 3 2----|---- 7---- 5-------- 7----------|
A|--------------------------------| 8---- 7------ 6------ 5-- 4----|
E| 8------ 7------ 5------ 3-- 2--|--------------------------------|
http://classicalguitartablature.blogspot.com/
E|--------------------------------|------------------------ 5 6-- 8|
B| 8---------- 8------ 8----------| 5---------------------- 5 6----|
G| 5---------- 7---- 5---- 3 3----| 5---- 5---- 5------ 5 5-- 4----|
D|-- 5------ 5---- 5------ 3 2----|---- 7---- 5-------- 7----------|
A|--------------------------------| 8---- 7------ 6------ 5-- 4----|
E| 8------ 7------ 5------ 3-- 2--|--------------------------------|
http://classicalguitartablature.blogspot.com/
E|---------------------- 3------ 7|------------------------ 5 6-- 8|
B|---- 8-- 8 8---------- 5--12--10|10---------- 8------ 8-- 5 6----|
G|-- 5---- 7-- 7------ 5-- 3 9-- 9|---- 9---- 7------ 5-- 5-- 4----|
D|-- 5---- 5-- 5-- 5-------- 310--|--10---- 5------ 7--------------|
A|---------------------------- 9 8|------ 7------ 6------ 5-- 4----|
E| 8------ 7---- 5------ 3--------|--------------------------------|
http://classicalguitartablature.blogspot.com/
E|---- 3-- 3 3-------------- 7-- 7|---------------------- 5 6-- 7 8|
B|---- 5-- 5 5-------- 6 8-- 8--10|10----------10------ 3 6-- 8 811|
G|-- 4---- 3-- 3---- 5-- 5-- 7----| 9-- 9---- 9------ 2-- 5-- 7 810|
D| 5---------- 5---- 3------ 7 7--|----10--10------ 3---------- 7 8|
A| 3------ 4---- 5------ 6-- 7----| 8------ 9----------------------|
E|--------------------------------|---------------- 3------ 5 6 7 9|
http://classicalguitartablature.blogspot.com/
E|---------------------- 3------ 7|------------------------ 5 6-- 8|
B|---- 8-- 8 8---------- 5--12--10|10---------- 8------ 8-- 5 6----|
G|-- 5---- 7-- 7------ 5-- 3 9-- 9|---- 9---- 7------ 5-- 5-- 4----|
D|-- 5---- 5-- 5-- 5-------- 310--|--10---- 5------ 7--------------|
A|---------------------------- 9 8|------ 7------ 6------ 5-- 4----|
E| 8------ 7---- 5------ 3--------|--------------------------------|
http://classicalguitartablature.blogspot.com/
E|---- 3-- 3 3-------------- 7-- 7|---------------------- 5 6-- 7 8|
B|---- 5-- 5 5-------- 6 8-- 8--10|10----------10------ 3 6-- 8 811|
G|-- 4---- 3-- 3---- 5-- 5-- 7----| 9-- 9---- 9------ 2-- 5-- 7 810|
D| 5---------- 5---- 3------ 7 7--|----10--10------ 3---------- 7 8|
A| 3------ 4---- 5------ 6-- 7----| 8------ 9----------------------|
E|--------------------------------|---------------- 3------ 5 6 7 9|
http://classicalguitartablature.blogspot.com/
E|-------- 8------ 8----12------12|----10--------------------------|
B|----10------10-- 8---- 8------10|----10------11------------------|
G|--10--10--10-- 7-- 7------12--10|--10------11--10----10---- 7----|
D|--10------10------ 7----14------|----------10------10------ 9----|
A|------------------------13------|12------11----10-------- 8-- 7--|
E|10---- 8------ 7----------------|--------------------------------|
http://classicalguitartablature.blogspot.com/
E|-------- 7------------------10--|--------------------------------|
B|12------10------12------13--10--|--------------------------13----|
G|10---- 9 9-- 5--10--10--10--10--|----10------ 5 5-- 9--10--13----|
D|--12-- 8-- 7 6----12----12------|--10------ 3-- 5-- 8-- 8--12----|
A|----------------12------11------|10---------------------------- 8|
E|10---- 9 8-- 6------------------|-------- 5---- 6-- 8--10----12--|
http://classicalguitartablature.blogspot.com/
E|------ 5-- 8-- 7---- 7-- 5-- 7--| 8 8----------------------------|
B|---- 5 5------ 6-- 6---- 5------| 8 8---------- 8----------------|
G|-- 5-------------- 7------ 4-- 4| 7---------- 7 5---- 5-- 3---- 3|
D| 7------ 5-- 5------------------|-- 7 7---------- 5-- 4---- 3-- 2|
A|------ 7-------- 5------ 4------|--------------------------------|
E|--------------------------------| 8------ 7---- 5---- 4-- 3-- 2--|
http://classicalguitartablature.blogspot.com/
E|------ 5 8---- 7------ 5--------|--------------------------------|
B|---- 5 5------ 6--10-- 6-- 8----| 5------------------------------|
G|-- 5-- 5---- 5---- 7---- 7-- 7--| 5-- 5------ 5------ 3------ 3--|
D| 7---- 5---- 5------ 7------ 6 6|-- 5------ 3------ 3------ 2----|
A| 8------ 7---- 5----------------|------------------------------ 8|
E|------------------ 8-- 7---- 6--| 5------ 4------ 3---- 2--------|
http://classicalguitartablature.blogspot.com/
E|------ 5-- 8-- 7---- 7-- 5-- 7--| 8 8----------------------------|
B|---- 5 5------ 6-- 6---- 5------| 8 8---------- 8----------------|
G|-- 5-------------- 7------ 4-- 4| 7---------- 7 5---- 5-- 3---- 3|
D| 7------ 5-- 5------------------|-- 7 7---------- 5-- 4---- 3-- 2|
A|------ 7-------- 5------ 4------|--------------------------------|
E|--------------------------------| 8------ 7---- 5---- 4-- 3-- 2--|
http://classicalguitartablature.blogspot.com/
E|-------- 8-- 8--10--10-- 810----|12------------------------------|
B|---- 5-- 5-- 6--10--10-- 8 8----|1313----------------------------|
G|-- 5---- 5-- 6--10--10-- 7 7----|12----------10------10------ 9--|
D| 7-------- 5-- 6--10--10------ 6|------14--12------ 8------ 8----|
A| 8------ 7-- 6----------------12|--------11----10-------- 9---- 8|
E|----------------10-- 8-- 7-- 6--|--------------------------------|
http://classicalguitartablature.blogspot.com/
E|------ 5-- 8-- 7---- 7-- 5-- 7--| 8 8----------------------------|
B|---- 5 5------ 6-- 6---- 5------| 8 8---------- 8----------------|
G|-- 5-------------- 7------ 4-- 4| 7---------- 7 5---- 5-- 3---- 3|
D| 7------ 5-- 5------------------|-- 7 7---------- 5-- 4---- 3-- 2|
A|------ 7-------- 5------ 4------|--------------------------------|
E|--------------------------------| 8------ 7---- 5---- 4-- 3-- 2--|
http://classicalguitartablature.blogspot.com/
E|-------- 8-- 8--10--10-- 810----|12-------------------------- 7 8|
B|---- 5-- 5-- 6--10--10-- 8 8----|1313--------------------1011 8--|
G|-- 5---- 5-- 6--10--10-- 7 7----|1212--12--12---------- 510-- 7--|
D| 7-------- 5-- 6--10--10------ 6|--15----15----15-- 3---- 9------|
A| 8------ 7-- 6---------------- 0|------------------------10 8----|
E|----------------10-- 8-- 7-- 6--|---------------- 4--------------|
http://classicalguitartablature.blogspot.com/
E|--------------------------------|--------------------------------|
B| 8------------------------------|--------------------------------|
G| 5------------------------------|--------------------------------|
D| 5------------------------------|--------------------------------|
A|--------------------------------|--------------------------------|
E| 0------------------------------|--------------------------------|
http://classicalguitartablature.blogspot.com/

0 ความคิดเห็น:

แสดงความคิดเห็น