To celebrate the anniversary, I am giving you (finally...) : iPhone LickByNeck !!!!!!

Love Story Theme (EASY)

Love Story Theme- EASY Arrangement played in the key of Gm.
http://classicalguitartablature.blogspot.com/

http://classicalguitartablature.blogspot.com/
E|---- 6 6---- 5 5-- 3-- 3--------|-- 6-- 6-- 5-- 5-- 3-- 3--------|
B|---- 3 3---- 3 3-- 3-- 3--------|-- 3-- 3-- 3-- 3-- 3-- 3-- 6----|
G|---- 3-- 3-- 3 3-- 3-- 3--------|-- 3-- 3-- 3-- 3-- 3-- 3--------|
D|--------------------------------|--------------------------------|
A|-------------------------- 5----|--------------------------------|
E| 3---------------------------- 3|--------------------------------|
http://classicalguitartablature.blogspot.com/
E|--------------------------------|------------------------ 5------|
B| 6------------------------------|---------------- 3------ 7------|
G| 7-- 8-- 8---- 8------ 8--------|-------- 3-------------- 5------|
D| 8-- 8-- 8-- 8---- 8-------- 8--|---- 5------ 5------ 5------ 7--|
A| 6------------------------------| 6---------------------- 5------|
E|--------------------------------|--------------------------------|
http://classicalguitartablature.blogspot.com/
E| 3------------------------------|--------------------------------|
B| 3------------------------------|-------------------- 3----------|
G| 3------ 3-------------- 3------|---------------- 3---------- 3--|
D|---- 3-------------- 3----------|------------ 3---------- 3------|
A|--------------------------------|--------------------------------|
E| 3---------- 3-- 3---------- 3--| 3-- 3-- 3----------------------|
http://classicalguitartablature.blogspot.com/
E| 6-------- 6-- 6----------------|---------- 6-- 6----------------|
B| 3-- 3-- 3-- 3-- 3---------- 3--|-- 3-- 3------ 3-- 3-- 4-- 3----|
G| 3-- 3-- 3------ 3------ 3------|-- 3-- 3------ 3-- 3-- 3-- 3----|
D|---- 3-- 3---------- 3----------|-- 3-------------- 3-- 3-- 3----|
A|--------------------------------|--------------------------------|
E| 3-------------- 3--------------| 3-------------- 3--------------|
http://classicalguitartablature.blogspot.com/
E|------------ 5-- 5---------- 5--|------------ 5-- 5--------------|
B| 1 1---- 1------ 4---- 4--------|---- 1-- 1-- 3-- 3------ 3------|
G| 2 2---- 2 5---- 5-- 5----------|---- 2-- 2-- 5-- 5-- 5------ 5--|
D| 1 1---- 1------ 4--------------|---- 1-- 1------ 4--------------|
A|--------------------------------|--------------------------------|
E| 2------------------------------| 2------------------------------|
http://classicalguitartablature.blogspot.com/
E|---------- 3-- 3----------------|---------- 3-- 3----------------|
B|---------- 3-- 3------------ 3--|-------------- 3----------------|
G| 3-- 3 3-- 3---- 3---- 3--------|-- 3-- 3------ 3-- 3-- 5-- 3-- 2|
D| 3-- 3-- 3-------- 2------------|-- 5-- 5---------------------- 4|
A|------------------------------ 6|-------------- 6-------------- 5|
E| 1-------------- 0--------------|--------------------------------|
http://classicalguitartablature.blogspot.com/
E|---------- 2-- 2----------------|---------------- 5--------------|
B|---------- 3-- 3------------ 3--|-------- 8------ 8--------------|
G|---- 2 2-- 2---- 2------ 2------|-------- 5-------------- 8------|
D|---- 4 4---------- 4------------|---- 7------ 7------ 7------ 7--|
A|---------------- 5--------------| 5------------------------------|
E|--------------------------------|--------------------------------|
http://classicalguitartablature.blogspot.com/
E|--------------------------------|--------------------------------|
B| 3------------------------------|--------------------------------|
G| 3------ 3------------ 5--------|-------- 7-------------- 5------|
D|---- 3---- 3------ 4-------- 4--|---- 5------ 5------ 5------ 5--|
A|--------------------------------|--------------------------------|
E| 3-------------- 5--------------| 6-------------- 5--------------|
http://classicalguitartablature.blogspot.com/
E| 6-------- 6-- 6----------------|---------- 6-- 6----------------|
B| 3-- 3-- 3-- 3-- 3---------- 3--|-- 3-- 3------ 3-- 3-- 4-- 3----|
G| 3-- 3-- 3------ 3------ 3------|-- 3-- 3------ 3-- 3-- 3-- 3----|
D|---- 3-- 3---------- 3----------|-- 3-------------- 3-- 3-- 3----|
A|--------------------------------|--------------------------------|
E| 3-------------- 3--------------| 3-------------- 3--------------|
http://classicalguitartablature.blogspot.com/
E|------------ 5-- 5---------- 5--|------------ 5-- 5--------------|
B| 1 1---- 1------ 4---- 4--------|---- 1-- 1-- 3-- 3------ 3------|
G| 2 2---- 2 5---- 5-- 5----------|---- 2-- 2-- 5-- 5-- 5------ 5--|
D| 1 1---- 1------ 4--------------|---- 1-- 1------ 4--------------|
A|--------------------------------|--------------------------------|
E| 2------------------------------| 2------------------------------|
http://classicalguitartablature.blogspot.com/
E|---------- 3-- 3----------------|---------- 3-- 3----------------|
B|---------- 3-- 3------------ 3--|-------------- 3----------------|
G| 3-- 3 3-- 3---- 3---- 3--------|-- 3-- 3------ 3-- 3-- 5-- 3-- 2|
D| 3-- 3-- 3-------- 2------------|-- 5-- 5---------------------- 4|
A|------------------------------ 6|-------------- 6-------------- 5|
E| 1-------------- 0--------------|--------------------------------|
http://classicalguitartablature.blogspot.com/
E|---------- 2-- 2----------------|---------------- 5--------------|
B|---------- 3-- 3------------ 3--|-------- 8------ 8------ 7------|
G|---- 2 2-- 2---- 2------ 2------|-------- 5-------------- 5------|
D|---- 4 4---------- 4------------|---- 7------ 7------ 7------ 7--|
A|---------------- 5--------------| 5-------------- 5--------------|
E|--------------------------------|--------------------------------|
http://classicalguitartablature.blogspot.com/
E| 7------------------------------|--------------10--------------11|
B| 8---------- 8------------------|------13------13----------------|
G| 7---- 7-------------- 7--------|------10--------------12--------|
D|---- 9------------ 9------ 9----|--12------12------12--------12--|
A|10------------10--------------10|------10------10------10--------|
E|--------------------------------|--------------------------------|
http://classicalguitartablature.blogspot.com/
E|----------------------11--------|------------------ 8--11-- 8--10|
B| 8-------- 8------ 8-- 8-- 8-- 8|--10--10----------10--10--10-- 6|
G| 8---- 8-------------- 8-- 8-- 8|-- 8-- 8---------- 8-- 8-- 8-- 7|
D|---- 8------------ 8------ 8-- 8|--10--10--10--------------------|
A|--------------------------------| 8-------------- 8--------------|
E| 8------------ 8----------------|------------------------------ 6|
http://classicalguitartablature.blogspot.com/
E|----------10----------10--------|------------------ 6--10---- 6--|
B|------ 6---------- 6------ 6----| 6-- 8-- 8-------- 8-- 8---- 8--|
G|-- 7-------------- 7------------| 7-- 7-- 7-------- 7-- 7---- 7--|
D|--------------------------------| 8-- 8-- 8-- 8------------------|
A|--------------------------------| 6-------------- 6--------------|
E|-------------- 6----------------|--------------------------------|
http://classicalguitartablature.blogspot.com/
E| 8------------------ 5 8-- 5----|------ 8------10----------10----|
B| 8---------- 8------ 7 7-- 7--11|--------10---- 8-- 8--11--------|
G| 8------ 8---------- 5 5-- 5--10|-------- 8---- 7------10--------|
D|---- 7--------------------------|-- 8------10------------12------|
A| 0-------------- 5------------10|-------- 9---- 8----------------|
E|--------------------------------|------------------------10------|
http://classicalguitartablature.blogspot.com/
E|11--------11--------------------|---------------------- 8--------|
B| 8-------------------- 8--11--11|------10----------11---------- 3|
G| 8---- 8----------10---------- 8|------ 8---------- 8------ 8----|
D|---- 8------------------------10|--10------10------10------------|
A|------------------------------ 8|------------------------------ 1|
E| 8------------ 8----------------|-------------- 8----------------|
http://classicalguitartablature.blogspot.com/
E|---------------------------- 1 5|--------------------------------|
B|------------ 3---- 3-- 4--------|------ 8---------- 6------------|
G|------ 2---------- 2------------|---- 7---- 7------ 7-- 8-- 7----|
D|---- 3------------ 3------------|------------------ 8-- 8-- 8----|
A|-------------- 1----------------| 6-------------- 6--------------|
E|--------------------------------|--------------------------------|
http://classicalguitartablature.blogspot.com/
E|--------------------------------|--------------------------------|
B|-------------------- 5-- 8 5----| 7---------- 7------------------|
G| 6------ 6---------- 6-- 6 6----| 5------ 5-------------- 8------|
D|---- 7------ 7------ 7-- 7-- 7--|---- 7-------------- 7------ 7--|
A|--------------------------------| 5------------------------------|
E| 5------------ 5----------------|---------------- 8--------------|
http://classicalguitartablature.blogspot.com/
E|--------------------------------| 6-------- 6-- 6----------------|
B|--------------------------------| 3-- 3-- 3-- 3-- 3---------- 3--|
G|-------- 7-------------- 5------| 3-- 3-- 3------ 3------ 3------|
D|---- 5------ 5------ 4------ 4--|---- 3-- 3---------- 3----------|
A|--------------------------------|--------------------------------|
E| 6-------------- 5--------------| 3-------------- 3--------------|
http://classicalguitartablature.blogspot.com/
E|---------- 6-- 6----------------|------------ 5-- 5---------- 5--|
B|-- 3-- 3------ 3-- 3-- 4-- 3----| 1 1---- 1------ 4---- 4--------|
G|-- 3-- 3------ 3-- 3-- 3-- 3----| 2 2---- 2 5---- 5-- 5----------|
D|-- 3-------------- 3-- 3-- 3----| 1 1---- 1------ 4--------------|
A|--------------------------------|--------------------------------|
E| 3-------------- 3--------------| 2------------------------------|
http://classicalguitartablature.blogspot.com/
E|------------ 5-- 5--------------|---------- 3-- 3----------------|
B|---- 1-- 1-- 3-- 3------ 3------|---------- 3-- 3------------ 3--|
G|---- 2-- 2-- 5-- 5-- 5------ 5--| 3-- 3 3-- 3---- 3---- 3--------|
D|---- 1-- 1------ 4--------------| 3-- 3-- 3-------- 2------------|
A|--------------------------------|------------------------------ 6|
E| 2------------------------------| 1-------------- 0--------------|
http://classicalguitartablature.blogspot.com/
E|---------- 3-- 3----------------|---------- 2-- 2----------------|
B|-------------- 3----------------|---------- 3-- 3------------ 3--|
G|-- 3-- 3------ 3-- 3-- 5-- 3-- 2|---- 2 2-- 2---- 2------ 2------|
D|-- 5-- 5---------------------- 4|---- 4 4---------- 4------------|
A|-------------- 6-------------- 5|---------------- 5--------------|
E|--------------------------------|--------------------------------|
http://classicalguitartablature.blogspot.com/
E|---------------- 5--------------| 3------------------------------|
B|-------- 8------ 7------ 7------| 3---------- 3------------------|
G|-------- 5------ 5------ 5------| 3------ 3-------------- 5------|
D|---- 7------ 7------ 7------ 7--|---- 3-------------- 4------ 4--|
A| 5-------------- 5--------------|--------------------------------|
E|--------------------------------| 3-------------- 5--------------|
http://classicalguitartablature.blogspot.com/
E|--------------------------------|--------------------------------|
B|--------------------------------|--------------------------------|
G|-------- 7-------------- 5------| 3------------------------------|
D|---- 5------ 5------ 5------ 5--| 2------------------------------|
A|--------------------------------|--------------------------------|
E| 6-------------- 5--------------| 3------------------------------|
http://classicalguitartablature.blogspot.com/
E|--------------------------------|--------------------------------|
B|--------------------------------|--------------------------------|
G|--------------------------------|--------------------------------|
D|--------------------------------|--------------------------------|
A|--------------------------------|--------------------------------|
E|--------------------------------|--------------------------------|
http://classicalguitartablature.blogspot.com/

0 ความคิดเห็น:

แสดงความคิดเห็น