To celebrate the anniversary, I am giving you (finally...) : iPhone LickByNeck !!!!!!

Only You (EASY)

Only You - EASY ARRANGEMENT played in the key of G.
http://classicalguitartablature.blogspot.com/

http://classicalguitartablature.blogspot.com/
E| 3------------------------------|------------------------------ 7|
B| 3 3 3-- 3 3 3-- 3 3 3-- 2 2 2--| 3---------------------------- 8|
G| 4-- 4-- 4 4 4-- 4 4 4-- 3 3 3--| 4------------ 6------ 7--------|
D|-- 5 5-- 5 5 5-- 5 5 5-- 4 4 4--| 5------------------------------|
A|--------------------------------|------------------------------10|
E| 3------ 3 3 3-- 3 3 3-- 2 2 2--| 3------------------------------|
http://classicalguitartablature.blogspot.com/
E|--------------------------------|------------------------ 7------|
B|-------- 8----------------------|---------------- 8--------------|
G|---- 7------ 7------ 7------ 7--|---- 7-- 7-- 7------ 7------ 7--|
D|-- 9------ 9------ 9------ 9----|-- 9------ 9------ 9------ 9----|
A|------------------------------10|--------10--------------10------|
E|---------------- 7------10------|--------------------------------|
http://classicalguitartablature.blogspot.com/
E| 5-------- 2--------------------|-------------- 7-------------- 3|
B| 4---- 4------ 4---------- 4----|---------- 4-- 7------10--------|
G| 2-- 2---------------- 2--------|------ 2------ 8---- 8------ 8--|
D|-- 4-------- 4------ 4------ 4--|---- 4------ 4---- 7------ 7----|
A| 2---------------------------- 2|---------------- 9--------------|
E|-------------- 2----------------|--------------------------------|
http://classicalguitartablature.blogspot.com/
E|--------------------------------|-------------- 0------ 3------ 1|
B| 0------ 0----------------------|------ 0------------ 0------ 0 0|
G|---- 0------ 0------ 0------ 0--|---- 0------ 0---- 0------ 0-- 0|
D|-- 0------ 0------ 0------ 0----|-- 2------ 2--------------------|
A|------------------------ 2------|-------------- 2----------------|
E| 0-------------- 3--------------| 0---------------------------- 3|
http://classicalguitartablature.blogspot.com/
E|------ 1------------------------|------------------------------ 0|
B|---- 0---- 3-- 0----------------|---------- 0-- 1------ 3------ 1|
G|-- 0------------------ 4---- 4--|------ 0------ 0---- 0------ 0 0|
D|------------ 0------ 3---- 3----|---- 3------ 3---- 2------ 0----|
A|-------------- 5----------------|-------------- 0------ 2------ 3|
E|------------------------------ 3|--------------------------------|
http://classicalguitartablature.blogspot.com/
E|-------------- 0------ 0-- 3-- 7|--------------------------------|
B|---------- 1-- 1---- 1-------- 8|------ 8--10-- 8------ 5------ 3|
G|------ 0------ 0-- 0---- 0---- 8|---- 8------ 8 8-------------- 0|
D|---- 2------ 2------------------|--------------------------------|
A|--------------------------------|--------------------------------|
E|-------------- 3-------------- 8|------------------------------ 3|
http://classicalguitartablature.blogspot.com/
E|------ 0------ 2------ 3------ 7|--------------------------------|
B|------------ 0 3-------------- 8|------ 8-------------- 8--------|
G|---- 0------ 0 2---- 2------ 2 9|---- 9------ 9------ 9------ 9--|
D|-- 0---- 0-------- 2---- 2------|-- 9------ 9------ 9------ 9----|
A|--------------------------------|--------------------------------|
E|-------------- 2-------------- 0|---------------- 7--------------|
http://classicalguitartablature.blogspot.com/
E| 5------------------------------|------------------------ 7---- 5|
B| 5------ 8---- 8------ 5------ 5|------ 5------ 5-------------- 7|
G| 6-- 6------ 6 6---- 6------ 6--| 6-- 6------ 6------ 6------ 6--|
D|-- 5------ 5------ 5------ 5----|-- 5------ 5------ 5------ 5----|
A|-------------- 7----------------|-------------- 7----------------|
E| 5------------------------------| 5------------------------------|
http://classicalguitartablature.blogspot.com/
E|--------------------------------|------------ 710---- 7----------|
B|------ 7-------------- 7------ 7|--------------------------10--12|
G|---- 5------ 5------ 5------ 5 5|------------------------------12|
D|-- 7------ 7------ 7------ 7-- 7|--------------------------------|
A| 5---------------------------- 5|------------------------------10|
E|---------------- 5--------------|--------------------------------|
http://classicalguitartablature.blogspot.com/
E|--------------------------------|------------------------ 7------|
B|--10--------10------------------|---------------- 8--------------|
G|----12----12-------- 7------ 7--|---- 7-- 7-- 7------ 7------ 7--|
D|------12---------- 9------ 9----|-- 9------ 9------ 9------ 9----|
A|------------------------------10|--------10--------------10------|
E|-------------- 7------10--------|--------------------------------|
http://classicalguitartablature.blogspot.com/
E| 5-------- 2--------------------|-------------- 7-------------- 3|
B| 4---- 4------ 4---------- 4----|---------- 4-- 7------10--------|
G| 2-- 2---------------- 2--------|------ 2------ 8---- 8------ 8--|
D|-- 4-------- 4------ 4------ 4--|---- 4------ 4---- 7------ 7----|
A| 2---------------------------- 2|---------------- 9--------------|
E|-------------- 2----------------|--------------------------------|
http://classicalguitartablature.blogspot.com/
E|--------------------------------|-------------- 0------ 3------ 1|
B| 0------ 0----------------------|------ 0------------ 0------ 0 0|
G|---- 0------ 0------ 0------ 0--|---- 0------ 0---- 0------ 0-- 0|
D|-- 0------ 0------ 0------ 0----|-- 2------ 2--------------------|
A|------------------------ 2------|-------------- 2----------------|
E| 0-------------- 3--------------| 0---------------------------- 3|
http://classicalguitartablature.blogspot.com/
E|------ 1------------------------|------------------------------ 0|
B|---- 0---- 3-- 0----------------|---------- 0-- 1------ 3------ 1|
G|-- 0------------------ 4---- 4--|------ 0------ 0---- 0------ 0 0|
D|------------ 0------ 3---- 3----|---- 3------ 3---- 2------ 0----|
A|-------------- 5----------------|-------------- 0------ 2------ 3|
E|------------------------------ 3|--------------------------------|
http://classicalguitartablature.blogspot.com/
E|-------------- 0------ 0-- 3-- 7|--------------------------------|
B|---------- 1-- 1---- 1-------- 8|------ 8--10-- 8------ 5------ 3|
G|------ 0------ 0-- 0---- 0---- 8|---- 8------ 8 8-------------- 0|
D|---- 2------ 2------------------|--------------------------------|
A|--------------------------------|--------------------------------|
E|-------------- 3-------------- 8|------------------------------ 3|
http://classicalguitartablature.blogspot.com/
E|------ 0------ 2------ 3------ 7|--------------------------------|
B|------------ 0 3-------------- 9|-------- 9------ 5-- 4-- 5------|
G|---- 0------ 0 2---- 2------ 2 7|---- 7---- 7---- 7-- 6-- 7------|
D|-- 0---- 0-------- 2---- 2------|-- 9-------- 9-- 6-- 5-- 6------|
A|--------------------------------|--------------------------------|
E|-------------- 2-------------- 0|---------------- 7-- 6-- 7------|
http://classicalguitartablature.blogspot.com/
E| 5-------- 7--------------------|---------------------- 7--------|
B| 5---- 5------ 5---------- 5-- 7|------ 7-- 6-- 7------ 5--------|
G| 6-- 6---------------- 6------ 5|---- 5---- 4-- 5---- 5------ 5--|
D|-- 5-------- 5------ 5------ 5--|-- 7---- 6-- 6 7-- 7-- 5-- 5----|
A|-------------- 7-------------- 5|---------- 4---- 5--------------|
E| 5------------------------------|--------------------------------|
http://classicalguitartablature.blogspot.com/
E| 3------------------------------|--------------------------------|
B| 3 3 3-- 3 3 3-- 3 3 3-- 2 2 2--| 3------------------------------|
G| 4-- 4-- 4 4 4-- 4 4 4-- 3 3 3--| 4------------------------------|
D|-- 5 5-- 5 5 5-- 5 5 5-- 4 4 4--| 5------------------------------|
A|--------------------------------|--------------------------------|
E| 3------ 3 3 3-- 3 3 3-- 2 2 2--| 3------------------------------|
http://classicalguitartablature.blogspot.com/

0 ความคิดเห็น:

แสดงความคิดเห็น