To celebrate the anniversary, I am giving you (finally...) : iPhone LickByNeck !!!!!!

Rain Drops Keep Falling On My Head (EASY)

Rain Drops Keep Falling On My Head - EASY ARRANGEMENT played in the key of D.
http://classicalguitartablature.blogspot.com/

http://classicalguitartablature.blogspot.com/
E|--------------------------------|--------------------------------|
B|------------ 3-------------- 3--|------------ 5-------------- 5--|
G|------ 4---------------- 4------|-------- 6------------ 6--------|
D|---- 5-------------- 5----------|---- 7-------------- 7----------|
A| 0------------------------------| 0------------------------------|
E|--------------------------------|--------------------------------|
http://classicalguitartablature.blogspot.com/
E|------------ 3-------------- 3--|------------ 5-- 7--------------|
B|-------- 3------------ 3--------|-------- 5----------------------|
G|---- 4-------------- 4----------|---- 6--------------------------|
D|--------------------------------|--------------------------------|
A| 0------------------------------| 0------------------------------|
E|--------------------------------|--------------------------------|
http://classicalguitartablature.blogspot.com/
E|--------------------------------| 2------------------------------|
B| 7------ 7------ 8-- 7-- 5------| 3---------- 3---------- 3------|
G| 6------ 6------ 6-- 6------ 7--| 2------ 2----------------------|
D|---- 7------ 7-- 7-- 7----------|---- 4-------------- 4------ 4--|
A| 5------------------------------| 5------------------------------|
E|---------------- 5--------------|---------------- 5--------------|
http://classicalguitartablature.blogspot.com/
E| 5------ 5------ 7-- 5-------- 2|-------- 3------ 0--------------|
B| 7------ 7------ 5-- 5-- 8-- 7 3|-------- 3------ 3------ 3------|
G| 5---------- 5-- 5-- 5-- 5-- 5--| 0-------------------------- 0--|
D|---- 7------------------ 5-- 5--|---- 0------ 0------ 0----------|
A| 5------------------------------|---------------- 2--------------|
E|---------------- 5--------------| 3------------------------------|
http://classicalguitartablature.blogspot.com/
E| 9-------------- 7-- 5-------- 9|---------------- 7--------------|
B|10-------------- 7---- 7------10|---------------- 7--------------|
G|-------- 9------ 7---------- 6--|-------- 9------ 7------ 7------|
D|----11------11------------------|----11------11------ 7------ 7--|
A| 9------------------------------| 9------------------------------|
E|---------------- 7--------------|---------------- 7--------------|
http://classicalguitartablature.blogspot.com/
E|--------------------------------|--------------------------------|
B|10------10-- 7-- 8--10-- 8------|10----10---- 7 8----10----------|
G| 7------ 7-- 7-- 7-- 7-- 7-- 7--| 7---- 7---- 7 7---- 7------ 7--|
D|---- 9---------- 9-- 9-- 9-- 9--|---- 9-------- 9-------- 9------|
A| 7------------------------------| 7------------------------------|
E|---------------- 7--------------|---------------- 7--------------|
http://classicalguitartablature.blogspot.com/
E|--------------------------------|--------------------------------|
B|-------- 3---- 3------ 5--------| 7------ 7------ 8-- 7-- 5------|
G|-------- 4---- 4------ 4--------| 6------ 6------ 6-- 6------ 7--|
D|---- 5------ 5------ 5------ 5--|---- 7------ 7-- 7-- 7----------|
A| 0------------------------------| 5------------------------------|
E|--------------------------------|---------------- 5--------------|
http://classicalguitartablature.blogspot.com/
E| 2------------------------------| 5------ 5------ 7-- 5-------- 2|
B| 3---------- 3---------- 3------| 7------ 7------ 5-- 5-- 8-- 7 3|
G| 2------ 2----------------------| 5---------- 5-- 5-- 5-- 5-- 5--|
D|---- 4-------------- 4------ 4--|---- 7------------------ 5-- 5--|
A| 5------------------------------| 5------------------------------|
E|---------------- 5--------------|---------------- 5--------------|
http://classicalguitartablature.blogspot.com/
E|-------- 3------ 0--------------| 9-------------- 7-- 5-------- 9|
B|-------- 3------ 3------ 3------|10-------------- 7---- 7------10|
G| 0-------------------------- 0--|-------- 9------ 7---------- 6--|
D|---- 0------ 0------ 0----------|----11------11------------------|
A|---------------- 2--------------| 9------------------------------|
E| 3------------------------------|---------------- 7--------------|
http://classicalguitartablature.blogspot.com/
E|---------------- 7--------------|--------------------------------|
B|---------------- 7--------------|10------10-- 7-- 8--10-- 8------|
G|-------- 9------ 7------ 7------| 7------ 7-- 7-- 7-- 7-- 7-- 7--|
D|----11------11------ 7------ 7--|---- 9---------- 9-- 9-- 9-- 9--|
A| 9------------------------------| 7------------------------------|
E|---------------- 7--------------|---------------- 7--------------|
http://classicalguitartablature.blogspot.com/
E|--------------------------------|--------------------------------|
B|10----10---- 7 8----10----------|-------- 3---- 3------ 5--------|
G| 7---- 7---- 7 7---- 7------ 7--|-------- 4---- 4------ 4--------|
D|---- 9-------- 9-------- 9------|---- 5------ 5------ 5------ 5--|
A| 7------------------------------| 0------------------------------|
E|---------------- 7--------------|--------------------------------|
http://classicalguitartablature.blogspot.com/
E|------------------------ 5------|--------------------------------|
B| 7---------- 7------------------| 5---------- 5---------- 7------|
G| 6------ 6----------------------| 5------ 5-------------- 5------|
D|---- 7-------------- 7------ 7--|---- 5-------------- 5------ 5--|
A| 5------------------------------|---------------- 7--------------|
E|---------------- 5--------------| 5------------------------------|
http://classicalguitartablature.blogspot.com/
E|-------- 2---- 0----------------| 2---- 0------ 2-------- 3------|
B| 3------ 3---- 0------ 3--------| 3---- 3------ 3-------- 3------|
G|---- 0------ 0------------------|---- 0------ 0------ 0------ 0--|
D|-------------------- 0------ 0--|--------------------------------|
A|---------------- 2--------------|---------------- 2--------------|
E| 3------------------------------| 3------------------------------|
http://classicalguitartablature.blogspot.com/
E|--------------------------------|------------------------------ 9|
B|12------10----10----------------|----------------10------------ 7|
G| 9------ 9------ 9------11------| 9------ 9------ 9----11------ 7|
D|----11------11------11------11--|----11------11------11------11--|
A| 9------------------------------| 9------------------------------|
E|---------------- 9--------------|---------------- 9--------------|
http://classicalguitartablature.blogspot.com/
E|-------- 7----------------------| 0-------------- 2---- 0--------|
B|-------- 7----10------ 7--------| 3------ 3------ 3------ 3------|
G|---- 7-------- 7------ 7--------| 0-------------- 0--------------|
D|---------------- 7-- 7------ 7--|---- 0------ 0------ 0------ 0--|
A|---------------- 9--------------|---------------- 2--------------|
E| 7------------------------------| 0------------------------------|
http://classicalguitartablature.blogspot.com/
E|--------------------------------|--------------------------------|
B|------------ 3-------------- 3--|------------ 5-------------- 5--|
G|-------- 4------------ 4--------| 6------ 6------------ 6--------|
D|---- 5-------------- 5----------| 7-- 7-------------- 7----------|
A| 0---------------------------- 0|--------------------------------|
E|--------------------------------|--------------------------------|
http://classicalguitartablature.blogspot.com/
E|--------------------------------| 2------------------------------|
B| 7------ 7------ 8-- 7-- 5------| 3---------- 3---------- 3------|
G| 6------ 6------ 6-- 6------ 7--| 2------ 2----------------------|
D|---- 7------ 7-- 7-- 7----------|---- 4-------------- 4------ 4--|
A| 5------------------------------| 5------------------------------|
E|---------------- 5--------------|---------------- 5--------------|
http://classicalguitartablature.blogspot.com/
E| 5------ 5------ 7-- 5-------- 2|-------- 3------ 0--------------|
B| 7------ 7------ 5-- 5-- 8-- 7 3|-------- 3------ 3------ 3------|
G| 5---------- 5-- 5-- 5-- 5-- 5--| 0-------------------------- 0--|
D|---- 7------------------ 5-- 5--|---- 0------ 0------ 0----------|
A| 5------------------------------|---------------- 2--------------|
E|---------------- 5--------------| 3------------------------------|
http://classicalguitartablature.blogspot.com/
E| 9-------------- 7-- 5-------- 9|---------------- 7--------------|
B|10-------------- 7---- 7------10|---------------- 7--------------|
G|-------- 9------ 7---------- 6--|-------- 9------ 7------ 7------|
D|----11------11------------------|----11------11------ 7------ 7--|
A| 9------------------------------| 9------------------------------|
E|---------------- 7--------------|---------------- 7--------------|
http://classicalguitartablature.blogspot.com/
E|--------------------------------|--------------------------------|
B|10------10-- 7-- 8--10-- 8------|10----10---- 7 8----10----------|
G| 7------ 7-- 7-- 7-- 7-- 7-- 7--| 7---- 7---- 7 7---- 7------ 7--|
D|---- 9---------- 9-- 9-- 9-- 9--|---- 9-------- 9-------- 9------|
A| 7------------------------------| 7------------------------------|
E|---------------- 7--------------|---------------- 7--------------|
http://classicalguitartablature.blogspot.com/
E|--------------------------------|--------------------------------|
B|-------- 3---- 3------ 5------ 3|------------ 3-------- 3--------|
G|-------- 4---- 4------ 4------ 0|------------ 2-------- 0--------|
D|---- 5------ 5------ 5------ 5 0|------------ 0-------- 4--------|
A| 0------------------------------|--------------------------------|
E|--------------------------------| 3---------- 2---------- 0------|
http://classicalguitartablature.blogspot.com/
E|--------------------------------|--------------------------------|
B| 3------------------------------|--------------------------------|
G| 2------------------------------|--------------------------------|
D| 4------------------------------|--------------------------------|
A| 5------------------------------|--------------------------------|
E|--------------------------------|--------------------------------|
http://classicalguitartablature.blogspot.com/

0 ความคิดเห็น:

แสดงความคิดเห็น