To celebrate the anniversary, I am giving you (finally...) : iPhone LickByNeck !!!!!!

Something Stupid

Something stupid played in the key of G.
http://classicalguitartablature.blogspot.com/

http://classicalguitartablature.blogspot.com/
E|---------------- 7---- 8--10--10|---- 8---- 7------------------10|
B|---------- 8 8---------------- 8|---- 8---- 7--10-------------- 8|
G|------------------------------ 9|-------------- 7---- 7---- 7----|
D|--------------------------------|-------------- 7-- 7------ 7----|
A|--------------------------------| 0------------------------------|
E|--------------------------------|---------------- 7---- 7------ 8|
http://classicalguitartablature.blogspot.com/
E| 8-- 8--------------------------|--------------------------------|
B|--12--10-- 8-- 7------------ 7--| 8------------------------------|
G|------ 9------------ 7 9--------| 7-- 7------ 7------ 7---- 7----|
D|------ 9------10------ 7--------| 5-- 5------ 5------ 5------ 5--|
A|--------------------------------|--------------------------------|
E|------ 9------10-------- 8------| 7-------------- 6------ 6------|
http://classicalguitartablature.blogspot.com/
E|--------------------------------|------------------------------ 2|
B|-------------------------- 3-- 3|---- 3---- 3-- 5-- 5-- 5-- 5-- 0|
G| 5-- 5---- 5------ 5---------- 4|---- 4---- 4-- 4-- 4-- 4-- 4-- 0|
D| 5-- 5---- 5------------------ 5|---------- 5-- 5------ 5-- 5----|
A|--------------------------------|--------------------------------|
E| 5-------------- 4------ 4---- 3|-------------- 2------ 2------ 0|
http://classicalguitartablature.blogspot.com/
E|---- 2---- 2---------- 2--------|--------------------------------|
B|---- 0---- 0-- 8-- 8-- 3-- 3-- 5|------ 8-- 7--------------------|
G|---- 0---- 0-- 5------ 2-- 4-- 5|---------- 7------ 7------ 7----|
D|-------------- 7---------- 3----|---- 5---- 7------ 7------ 7----|
A|-------------- 6------ 3---- 4 5|--------------------------------|
E|--------------------------------|-------------- 8------ 8------ 7|
http://classicalguitartablature.blogspot.com/
E|--------------------------------|--------------------------------|
B|------------------------------ 5|------ 5-- 5-- 7-- 7-- 7-- 7----|
G|---- 7---- 7------ 7------ 7----|---- 5-------- 5-- 5-- 5-- 5----|
D|-- 5------ 5------ 5------ 5----|-- 5---------- 4------ 4--------|
A|--------------------------------|--------------------------------|
E|-------------- 6------ 6------ 5|---------------- 4---- 4--------|
http://classicalguitartablature.blogspot.com/
E| 3---- 3---- 3-- 2-- 3-- 2------|-------- 2----------------------|
B| 5---- 5-- 5---- 3-- 3-- 3-- 3--| 5---------- 5------------------|
G| 5---- 5---- 5-- 2-- 2-- 2-- 2--|------ 4---- 4---- 4------ 4----|
D|---------------------------- 2--|---- 5------ 3---- 3------------|
A|--------------------------------|--------------------------------|
E| 3-------------- 2------ 2------| 3-------------- 4------ 4---- 5|
http://classicalguitartablature.blogspot.com/
E|--------------------------------|-------------- 5-- 5-- 5-- 5-- 7|
B|------------------------------ 8|------ 8-- 8-- 6-- 6-- 6--------|
G|---- 5---- 5-------------- 7----|---- 7-------- 5-- 5-- 5-- 5----|
D|-- 5------ 5------ 5------ 5----|-- 5----------------------------|
A|--------------------------------|------------------------------10|
E|-------------- 6------ 6------ 7|-------------- 5------ 5--------|
http://classicalguitartablature.blogspot.com/
E|------ 7-- 7--10-- 8-- 7---- 8 7|-------------------- 7-------- 6|
B|---- 8-------- 8-- 5-- 6---- 6 8|------10----10---------- 8---- 8|
G|--10---------- 7---- 5 7---- 5--| 9---- 9---- 9-------------- 9 6|
D|--------------------------------|---- 9------ 9------------------|
A|---------------- 8-- 7 5---- 4--|--------------------------------|
E|--------------------------------| 8-------------- 7--------------|
http://classicalguitartablature.blogspot.com/
E|------ 8-- 6--------------------|--------------------------------|
B|---- 8---- 6------------------ 8|-------- 8-- 5-- 7---- 7---- 5--|
G|---- 6---- 6------ 6-------- 6--| 5-- 5---------- 6------ 6------|
D|---- 8-------------- 6----------|-- 5---------------- 5-- 5------|
A|--------------------------------|--------------------------------|
E| 6-------------- 4------ 4------| 5-------------- 6------ 6------|
http://classicalguitartablature.blogspot.com/
E|---------------------------- 7--| 5------------------------------|
B| 8------ 8------ 7-- 7-- 7------| 3------ 3-- 8------------------|
G| 7-- 7---- 9---- 9-- 9-- 9------|------ 4---- 5------ 5------ 5--|
D|---- 7---------- 7-- 7-- 9------|---- 5-------------- 9----------|
A|--------------------------------| 5-------------- 7------ 7------|
E| 7-------------- 8------ 9------|------------------------------ 1|
http://classicalguitartablature.blogspot.com/
E|------------------------------ 3|-------- 3 3-- 5-- 5-- 5-- 5-- 7|
B|---------- 1-------------- 3-- 6|-------- 6 6-- 0-- 0-- 0-- 0-- 5|
G|---- 2---- 2------ 3------ 3-- 4|---- 4-- 4 4-- 0-- 0-- 0-- 0----|
D|-- 0---------------- 2---- 2----|-- 5----------------------------|
A|--------------------------------|------------------------------ 7|
E|-------------- 2-------- 2------| 3------------ 1------ 1--------|
http://classicalguitartablature.blogspot.com/
E|------ 7-- 7--10---------- 8-- 7|--------------------------------|
B|--------------13--13--12-- 8-- 8|------10--10--------------------|
G|---- 5--------12--10--10-- 8-- 9|---- 9---- 9------ 9------ 9----|
D|-- 5--------------10-- 9--------|-- 9------10------10------10----|
A|--------------------------------|--------------------------------|
E|--------------11--10-- 9---- 7 8|-------------- 7-------- 7---- 6|
http://classicalguitartablature.blogspot.com/
E|--------------------------------| 5------ 5-- 5-- 7-- 7-- 7-- 7 9|
B|---------------------------- 5--| 5-------------- 5-- 5-- 5-- 5--|
G|---- 7---- 7-------- 4------ 4--| 6---- 6-------- 6-- 6-- 6-- 6--|
D|-- 6-------- 6------ 3------ 3--|---- 5--------------------------|
A|--------------------------------|--------------------------------|
E|---------------- 4---- 4--------| 5-------------- 3------ 3------|
http://classicalguitartablature.blogspot.com/
E|-------- 9-- 9--12--12--12--14--|12----10--10--------------------|
B|------10--------15------14--14--|10-------- 7--------------------|
G|-- 8------------14------12--12--|----11------ 7------ 7---- 7----|
D|----------------------------11--|--10---------------- 7---- 7----|
A| 9------------------------------|--------------------------------|
E|----------------13------12--11--|10-------------- 8------ 8------|
http://classicalguitartablature.blogspot.com/
E|--------------------------------|------------------------------ 2|
B| 3-------------------------- 3--| 3---- 3-- 3-- 5-- 5-- 5-- 5-- 0|
G| 2---- 2-- 1-------- 5------ 5--| 4-- 4-------- 4-- 4-- 4-- 4-- 0|
D|---- 0------ 3-------------- 4--|-- 5---------- 5------ 5-- 5----|
A| 2------ 1----------------------|--------------------------------|
E|-------------- 5-------- 4------| 3------------ 2------ 2------ 0|
http://classicalguitartablature.blogspot.com/
E|---- 2---- 2---------- 2--------|--------------------------------|
B|---- 0---- 0-- 8-- 8-- 3-- 3-- 5|------ 8-- 7--------------------|
G|---- 0---- 0-- 5------ 2-- 4-- 5|---------- 7------ 7------ 7----|
D|-------------- 7---------- 3----|---- 5---- 7------ 7------ 7----|
A|-------------- 6------ 3---- 4 5|--------------------------------|
E|--------------------------------|-------------- 8------ 8------ 7|
http://classicalguitartablature.blogspot.com/
E|--------------------------------|--------------------------------|
B|------------------------------ 5|------ 5-- 5-- 7-- 7-- 7-- 7----|
G|---- 7---- 7------ 7------ 7----|---- 5-------- 5-- 5-- 5-- 5----|
D|-- 5------ 5------ 5------ 5----|-- 5---------- 4------ 4--------|
A|--------------------------------|--------------------------------|
E|-------------- 6------ 6------ 5|---------------- 4---- 4--------|
http://classicalguitartablature.blogspot.com/
E| 3---- 3---- 3-- 2-- 3-- 2------|-------- 2----------------------|
B| 5---- 5-- 5---- 3-- 3-- 3-- 3--| 5---------- 5------------------|
G| 5---- 5---- 5-- 2-- 2-- 2-- 2--|------ 4---- 4---- 4------ 4----|
D|---------------------------- 2--|---- 5------ 3---- 3------------|
A|--------------------------------|--------------------------------|
E| 3-------------- 2------ 2------| 3-------------- 4------ 4---- 5|
http://classicalguitartablature.blogspot.com/
E|--------------------------------|-------------- 5-- 5-- 5-- 5-- 7|
B|------------------------------ 8|------ 8-- 8-- 6-- 6-- 6--------|
G|---- 5---- 5-------------- 7----|---- 7-------- 5-- 5-- 5-- 5----|
D|-- 5------ 5------ 5------ 5----|-- 5----------------------------|
A|--------------------------------|------------------------------10|
E|-------------- 6------ 6------ 7|-------------- 5------ 5--------|
http://classicalguitartablature.blogspot.com/
E|------ 7-- 7--10-- 8-- 7---- 8 7|-------------------- 7-------- 6|
B|---- 8-------- 8-- 5-- 6---- 6 8|------10----10---------- 8---- 8|
G|--10---------- 7---- 5 7---- 5--| 9---- 9---- 9-------------- 9 6|
D|--------------------------------|---- 9------ 9------------------|
A|---------------- 8-- 7 5---- 4--|--------------------------------|
E|--------------------------------| 8-------------- 7--------------|
http://classicalguitartablature.blogspot.com/
E|------ 8-- 6--------------------|--------------------------------|
B|---- 8---- 6------------------ 8|-------- 8-- 5-- 7---- 7---- 5--|
G|---- 6---- 6------ 6-------- 6--| 5-- 5---------- 6------ 6------|
D|---- 8-------------- 6----------|-- 5---------------- 5-- 5------|
A|--------------------------------|--------------------------------|
E| 6-------------- 4------ 4------| 5-------------- 6------ 6------|
http://classicalguitartablature.blogspot.com/
E|---------------------------- 7--| 5------------------------------|
B| 8------ 8------ 7-- 7-- 7------| 3------ 3-- 8------------------|
G| 7-- 7---- 9---- 9-- 9-- 9------|------ 4---- 9------ 9------ 9--|
D|---- 7---------- 7-- 7-- 9------|---- 5------ 9------ 9------ 9--|
A|--------------------------------| 5------------------------------|
E| 7-------------- 8------ 9------|---------------- 9------ 9------|
http://classicalguitartablature.blogspot.com/
E|-------------------------- 7-- 5|--------------------------------|
B|-------------------------- 8----| 8---------- 8------------------|
G|------ 8-- 8-------- 7---- 7----| 7---- 7---- 5------ 5---- 5----|
D|-- 7------ 7-------- 7----------|---- 5------ 5------ 5------ 5--|
A|--------------------------------|--------------------------------|
E| 8-------------- 7------ 7------| 6-------------- 5------ 5------|
http://classicalguitartablature.blogspot.com/
E|-------------------------- 7-- 5|---------- 3--------------------|
B|-------------------------- 5-- 3|------------ 3------------------|
G|---- 4---- 4------ 5------ 5-- 3|------------ 2------------------|
D|-- 3------ 3------ 5---------- 2|------------ 2------------------|
A|--------------------------------|--------------------------------|
E| 4------------ 3------ 3--------| 2---------- 3------------------|
http://classicalguitartablature.blogspot.com/

0 ความคิดเห็น:

แสดงความคิดเห็น