To celebrate the anniversary, I am giving you (finally...) : iPhone LickByNeck !!!!!!

Sorry Seems To Be The Hardest Word

Sorry Seems To Be The Hardest Word played in the key of Am.

http://classicalguitartablature.blogspot.com/
E| 5-------------- 5--------------| 5------ 5------ 5------ 5------|
B| 5------ 5------ 7------ 7------| 6------ 6------ 5------ 6------|
G| 5-------------- 5--------------| 4-- 4------ 4-- 2------ 7------|
D|---- 5------ 5------ 7------ 7--|-------------------- 4------ 7--|
A| 7-------------- 6--------------| 5-------------- 3--------------|
E|--------------------------------|------------------------ 7------|
http://classicalguitartablature.blogspot.com/
E|------------------------ 0------| 0------------------------------|
B|-------- 5 5-- 5 5------ 1 1----| 3-- 3--------------------------|
G| 5------ 4 4-- 4 5---- 5 2-- 2--| 2-- 2-- 0---- 0 5---------- 5--|
D|---- 5-- 3 3-- 3 5 5---------- 2|---------- 2-------- 7------ 7--|
A|--------------------------------|---------------- 5--------------|
E| 5------ 4------ 3------ 2------| 1------ 0-------------- 8------|
http://classicalguitartablature.blogspot.com/
http://classicalguitartablature.blogspot.com/
E|--------------------------------|--------------------------------|
B|---- 3 3 3-- 3-- 3-- 3-- 5 3----| 1------------------------------|
G|---- 0 0 0-- 0-- 5-- 5-- 5-- 5--| 0---- 0------ 2 2------ 5------|
D|---- 0-- 0-- 0-- 3---- 3--------|---- 2---- 2-------- 0-- 6------|
A| 2------ 1----------------------|---------------------------- 5--|
E|-------------- 5------ 4--------| 3------ 2------ 1------ 0------|
http://classicalguitartablature.blogspot.com/
E|-------------- 5----------------|--------------------------------|
B|---- 5-- 5-- 5 8---- 8-- 5 3----| 5-- 3--------------------------|
G|---- 2-- 7-- 7-- 7------ 5-- 5--| 5-- 5------ 5-- 5---------- 2--|
D|-- 2-------- 6---- 5---- 3------| 3 3-- 3-- 3-------- 3------ 2--|
A| 3------------------------------|--------------------------------|
E|-------- 7------ 6---- 4--------| 5------ 4------ 3------ 2------|
http://classicalguitartablature.blogspot.com/
E|--------------------------------|--------------------------------|
B|---- 3-- 3-- 3-- 3-- 3 5-- 3----| 1------ 3---- 4------ 5--------|
G|---- 0-- 0-- 0-- 3---- 5---- 5--| 0------ 2---- 5---- 5 4---- 4--|
D|---- 0-- 2-- 2 5------ 3---- 3--|---- 2------ 3---- 6------ 3----|
A|-------------- 6------ 5---- 4--| 3------ 2----------------------|
E| 1------ 0----------------------|-------------- 6------ 4------ 5|
http://classicalguitartablature.blogspot.com/
E|------------------------ 0------| 0------------------------------|
B|------ 5-- 5 5---------- 1 1----| 3-- 3--------------------------|
G|---- 5 4-- 4 4-- 5---- 5 2-- 2--| 2-- 2-- 0---- 0 5---------- 5--|
D|-- 5-- 3-- 3 3-- 5-- 5-------- 2|---------- 2-------- 7------ 7--|
A|--------------------------------|---------------- 5--------------|
E|-------- 4------ 3------ 2------| 1------ 0-------------- 8------|
http://classicalguitartablature.blogspot.com/
E|--------------------------------|--------------------------------|
B|---- 3 3 3-- 3-- 3-- 3-- 5 3----| 1------------------------------|
G|---- 0 0 0-- 0-- 5-- 5-- 5-- 5--| 0---- 0------ 2 2------ 5------|
D|---- 0-- 0-- 0-- 3---- 3--------|---- 2---- 2-------- 0-- 6------|
A| 2------ 1----------------------|---------------------------- 5--|
E|-------------- 5------ 4--------| 3------ 2------ 1------ 0------|
http://classicalguitartablature.blogspot.com/
E|-------------- 5----------------|--------------------------------|
B|---- 5-- 5-- 5 8---- 8-- 5 3----| 5-- 3--------------------------|
G|---- 2-- 7-- 7-- 7------ 5-- 5--| 5-- 5------ 5-- 5---------- 2--|
D|-- 2-------- 6---- 5---- 3------| 3 3-- 3-- 3-------- 3------ 2--|
A| 3------------------------------|--------------------------------|
E|-------- 7------ 6---- 4--------| 5------ 4------ 3------ 2------|
http://classicalguitartablature.blogspot.com/
E|--------------------------------|--------------------------------|
B|---- 3-- 3-- 3-- 3-- 3 5-- 3----| 1------ 3---- 4------ 5--------|
G|---- 0-- 0-- 0-- 3---- 5---- 5--| 0------ 2---- 5---- 5 4---- 4--|
D|---- 0-- 2-- 2 5------ 3---- 3--|---- 2------ 3---- 6------ 3----|
A|-------------- 6------ 5---- 4--| 3------ 2----------------------|
E| 1------ 0----------------------|-------------- 6------ 4--------|
http://classicalguitartablature.blogspot.com/
E|-------- 3-------------- 1 0----|---- 5-- 7-- 8-- 7-- 5----------|
B|-- 6-- 6-- 6-------- 5-- 3---- 3|---- 5--10------ 8-- 5-- 5 3----|
G|-- 5------ 5-------- 4-- 2-- 2--|---- 5-- 9------ 8-- 5 5---- 5--|
D|-- 3-------- 3---- 2------------|-- 5------------------ 5---- 3--|
A|--------------------------------|------ 9-------- 8--------------|
E| 5------ 3------ 4------ 1------| 3------------------ 2 3---- 4--|
http://classicalguitartablature.blogspot.com/
E|--------------------------------|--------------------------------|
B|---- 6-- 8-- 6-- 5-- 3-- 3------| 1------------------------------|
G|---- 5-- 7-- 7-- 2-- 2-- 4-- 5--| 2-- 2------ 2------ 2------ 4--|
D|-- 3---- 6-- 6-- 3-- 2-- 3-- 7--|-- 2------ 2------ 2------ 2----|
A|---------------- 2-- 3-- 5-- 6--|--------------------------------|
E| 5---- 6------------------------| 0------ 2------ 3------ 4------|
http://classicalguitartablature.blogspot.com/
E|--------------------------------|---- 5 7 8-- 7-- 7------ 0------|
B|---- 6-- 8 6-------- 5-- 6------|---- 6 6 7-- 7-- 5--10-- 1 3-- 1|
G|---- 5-- 7---- 7---- 7---- 9----|-- 5---- 5------ 5-- 7-- 2---- 2|
D|-- 3-- 6---------- 6---- 7-- 7--|-------------------- 7-------- 2|
A|--------------------------------| 5---- 6-------- 7-- 8----------|
E| 5---- 6-------- 7---- 8--------|---------------------- 2------ 3|
http://classicalguitartablature.blogspot.com/
E|------------ 0------------------|------------------------ 0------|
B|---- 3 5 6------ 8-- 6----------|-------- 5 5-- 5 5------ 1 1----|
G|---- 4 4 4------ 7-- 7-- 9-- 7--| 5------ 4 4-- 4 5---- 5 2-- 2--|
D|-- 3 3 3-- 3-- 3 6-- 7-- 7-- 5--|---- 5-- 3 3-- 3 5 5---------- 2|
A|--------------------------------|--------------------------------|
E| 4------ 5---- 6---- 7-- 8 7----| 5------ 4------ 3------ 2------|
http://classicalguitartablature.blogspot.com/
E| 0------------------------------|--------------------------------|
B| 3-- 3--------------------------|---- 3 3 3-- 3-- 3-- 3-- 5 3----|
G| 2-- 2-- 0---- 0 5---------- 5--|---- 0 0 0-- 0-- 5-- 5-- 5-- 5--|
D|---------- 2-------- 7------ 7--|---- 0-- 0-- 0-- 3---- 3--------|
A|---------------- 5--------------| 2------ 1----------------------|
E| 1------ 0-------------- 8------|-------------- 5------ 4--------|
http://classicalguitartablature.blogspot.com/
E|--------------------------------|-------------- 5----------------|
B| 1------------------------------|---- 5-- 5-- 5 8---- 8-- 5 3----|
G| 0---- 0------ 2 2------ 5------|---- 2-- 7-- 7-- 7------ 5-- 5--|
D|---- 2---- 2-------- 0-- 6------|-- 2-------- 6---- 5---- 3------|
A|---------------------------- 5--| 3------------------------------|
E| 3------ 2------ 1------ 0------|-------- 7------ 6---- 4--------|
http://classicalguitartablature.blogspot.com/
E|--------------------------------|-- 0-- 1------------------------|
B| 5-- 3--------------------------| 3------ 8-- 6-- 5--------------|
G| 5-- 5------ 5-- 5---------- 2--| 2------ 7-- 7-- 4------ 2-- 2 5|
D| 3 3-- 3-- 3-------- 3------ 2--| 0------ 6-- 6-- 6-- 6---- 4 3--|
A|--------------------------------|-------------- 5-------- 3---- 2|
E| 5------ 4------ 3------ 2---- 1|------ 0---------------------- 5|
http://classicalguitartablature.blogspot.com/
E| 5 7 8-- 8-- 7-- 5--------------|---- 0--------------------------|
B| 5------ 6-- 6-- 5---- 5--------| 3-- 1-- 6-- 5-- 8-- 6------ 9--|
G|-------- 4-- 4-- 5 5-------- 5--| 2-- 2-- 4-- 4-- 7-- 7-- 9--10--|
D|--------------------------------| 0------ 3-- 3-- 6-- 7-- 7-- 9--|
A|--------------------------------|--------------------------------|
E|------ 4-------- 3------ 2------| 1-- 2-- 4-- 5-- 6-- 7-- 8--10--|
http://classicalguitartablature.blogspot.com/
E| 5-------------- 5--------------| 5------ 5------ 5------ 5------|
B| 5------ 5------ 7------ 7------| 6------ 6------ 5------ 6------|
G| 5-------------- 5--------------| 4-- 4------ 4-- 2------ 7------|
D|---- 5------ 5------ 7------ 7--|-------------------- 4------ 7--|
A| 7-------------- 6--------------| 5-------------- 3--------------|
E|--------------------------------|------------------------ 7------|
http://classicalguitartablature.blogspot.com/
E|-- 5----------------------------|--------------------------------|
B|-- 7----------------------------|--------------------------------|
G| 5------------------------------|--------------------------------|
D|--------------------------------|--------------------------------|
A|--------------------------------|--------------------------------|
E| 5------------------------------|--------------------------------|
http://classicalguitartablature.blogspot.com/

0 ความคิดเห็น:

แสดงความคิดเห็น