To celebrate the anniversary, I am giving you (finally...) : iPhone LickByNeck !!!!!!

Star Bangled Banner (EASY)

Star Bangled Banner - EASY ARRANGEMENT played in the key of G.
http://classicalguitartablature.blogspot.com/

http://classicalguitartablature.blogspot.com/
E|------------------------|------------------------|
B|---------------- 3-- 0--|-------- 0------ 3------|
G| 0------ 0------ 0-- 0--| 0---------- 0----------|
D|---- 0------ 0-- 0-- 0--|---- 0------------------|
A|------------------------|------------------------|
E| 3----------------------| 3----------------------|
http://classicalguitartablature.blogspot.com/
E| 3-------------- 7-- 5--| 3----------------------|
B| 3---------- 3----------| 0---- 0------ 2--------|
G|------ 4----------------| 0---------- 0 0--------|
D|---- 5------------------|---- 0-------------- 2--|
A|------------------------|---------------- 0------|
E| 3----------------------| 0----------------------|
http://classicalguitartablature.blogspot.com/
E|------------------------| 7---------- 5 3--------|
B| 3-------------- 3-- 3--| 3------ 3------------ 7|
G| 5---- 5----------------| 4-- 4-------------- 4 5|
D|---- 4------ 4----------|------------------------|
A| 5----------------------|------------------------|
E|------------------------| 3----------------------|
http://classicalguitartablature.blogspot.com/
E|------------------------| 3---- 3----------------|
B|------------ 7-- 5-- 7--| 3---- 3------ 3------ 0|
G|------ 5---- 5-- 5-- 5--| 0-- 0-------- 0------ 0|
D|---- 7------------------|------------ 0------ 0--|
A| 5----------------------|------------------------|
E|------------------------| 3----------------------|
http://classicalguitartablature.blogspot.com/
E|------------------------|------------------------|
B|---------------- 3-- 0--|-------- 0------ 3------|
G|-------- 0------ 0-- 0--| 0---------- 0----------|
D|---- 0------ 0-- 0-- 0--|---- 0------------------|
A|------------------------|------------------------|
E| 3-------------- 3------| 3----------------------|
http://classicalguitartablature.blogspot.com/
E| 3-------------- 7-- 5--| 3----------------------|
B| 3---------- 3----------| 0---- 0------ 2--------|
G|------ 4----------------| 0---------- 0 0--------|
D|---- 5------------------|---- 0-------------- 2--|
A|------------------------|---------------- 0------|
E| 3----------------------| 0----------------------|
http://classicalguitartablature.blogspot.com/
E|------------------------| 7---------- 5 3--------|
B| 3-------------- 3-- 3--| 3------ 3------------ 7|
G| 5---- 5----------------| 4-- 4-------------- 4 5|
D|---- 4------ 4----------|------------------------|
A| 5----------------------|------------------------|
E|------------------------| 3----------------------|
http://classicalguitartablature.blogspot.com/
E|------------------------| 3---- 3----------------|
B|------------ 7-- 5-- 7--| 3---- 3------ 3------ 0|
G|------ 5---- 5-- 5-- 5--| 0-- 0-------- 0------ 0|
D|---- 7------------------|------------ 0------ 0--|
A| 5----------------------|------------------------|
E|------------------------| 3-------------------- 3|
http://classicalguitartablature.blogspot.com/
E|------------------------|----------------10------|
B|----------------12--12--|12------13--------------|
G|------ 0--------11--11--|11------11--------------|
D|---- 0------ 0--12--12--|12--12------12------12--|
A|----------------10------|10----------------------|
E|------------------------|------------------------|
http://classicalguitartablature.blogspot.com/
E|10-------------------- 5|------ 7------ 8------ 8|
B|12----------12--13--12 7|------ 7-------------- 7|
G|11------11------11--11 5|---- 5------ 5------ 5--|
D|----12----------12--12--|------------------------|
A|10--------------10---- 5|------------------------|
E|------------------------|------------------------|
http://classicalguitartablature.blogspot.com/
E|------------ 8 8------ 7|------------ 5 3--------|
B|------ 7------ 7------ 3|-------- 3-- 3 3------ 7|
G|---- 5-------------- 5--| 4-- 4------ 4 4---- 4 5|
D|------------------------|------------------------|
A| 5----------------------|---------------------- 5|
E|------------------------| 3----------------------|
http://classicalguitartablature.blogspot.com/
E|------------------------| 3----------------------|
B|------------ 7 5---- 7--| 0---- 0-------- 2------|
G|------ 5---- 5 5---- 5--| 0---- 0-------- 0------|
D|---- 7-------- 7---- 7--|---- 0------ 0-- 2-- 2--|
A|------------------------|---------------- 0------|
E|------------------------| 0----------------------|
http://classicalguitartablature.blogspot.com/
E|---------------------- 3|------------ 3 3---- 2 0|
B| 3------------ 3-- 3-- 3|------ 3---- 3 3------ 1|
G| 2---- 2------ 2-- 2-- 0|---- 0------ 0 0---- 0 0|
D| 4-- 4------ 4 4---- 4--|------------------------|
A| 5----------------------|---------------------- 3|
E|---------------------- 3|------------------------|
http://classicalguitartablature.blogspot.com/
E|------ 0------ 0---- 0 5|-------- 8-- 7 5--------|
B|------ 1------ 1---- 1 5|-------- 5-- 5 5---- 8 8|
G|------------ 0 0---- 0 5|-------- 5-- 5 5---- 5 5|
D|---- 2------------------|---- 5-------------- 5--|
A|------------------------|------------------------|
E|------------------------| 5----------------------|
http://classicalguitartablature.blogspot.com/
E|------------------------|------------------------|
B|------------------------| 7----------------------|
G|-------- 5------ 5------| 5------ 5------ 7-- 7--|
D|---- 7------ 7------ 7--|---- 7------ 7----------|
A| 5----------------------| 5----------------------|
E|------------------------|------------------------|
http://classicalguitartablature.blogspot.com/
E|----------------------10|------------------------|
B|------------1012----13 8|-------------- 8----10--|
G|12------1211---------- 7|------ 7------ 7---- 7--|
D|----12------------------|---- 9------ 9------ 9--|
A|10----------------------|------------------------|
E|---------------------- 7|------------------------|
http://classicalguitartablature.blogspot.com/
E| 7---------- 8 5---- 7 3|------------------------|
B| 5------ 5---- 5---- 5 1|------ 0-------- 1------|
G| 5-- 5---------- 5-- 5 0|------ 0----------------|
D|------------------------|------ 0-------- 2------|
A|---------------- 5------| 3------ 2------ 0------|
E| 5----------------------|------------------------|
http://classicalguitartablature.blogspot.com/
E|------------------------|------------------------|
B|------------------------|------------------------|
G| 0----------------------|------------------------|
D| 0----------------------|------------------------|
A|------------------------|------------------------|
E| 3----------------------|------------------------|
http://classicalguitartablature.blogspot.com/
E|------------------------|------------------------|
B|------------------------|------------------------|
G|------------------------|------------------------|
D|------------------------|------------------------|
A|------------------------|------------------------|
E|------------------------|------------------------|
http://classicalguitartablature.blogspot.com/

0 ความคิดเห็น:

แสดงความคิดเห็น