To celebrate the anniversary, I am giving you (finally...) : iPhone LickByNeck !!!!!!

Superstar

Carpenters' hit fingerstyle chord melody guitar arrangement played in the key of Am.

Superstar played in the key of Am.
http://classicalguitartablature.blogspot.com/
E|--------------------------------| 0-- 0---- 3--------------------|
B| 5------------------------------| 3-- 1---- 5---- 5--------------|
G| 5---- 7-- 5---------------- 5--| 1-- 2---- 4---- 5---------- 5--|
D|---- 6-- 7-- 3------ 3------ 6--|---------- 5-- 5---- 5-- 6-- 7--|
A|-------------- 5-------- 6------|--------------------------------|
E| 6------ 8----------------------| 1-- 2---- 3-- 5----------------|
http://classicalguitartablature.blogspot.com/
E|--------------------------------| 0-- 0---- 3--------------------|
B| 5------------------------------| 3-- 1---- 5---- 5--------------|
G| 5---- 7-- 5---------------- 5--| 1-- 2---- 4---- 5--------------|
D|---- 6-- 7-- 3------ 3------ 6--|---------- 5-------- 5-- 6-- 7--|
A|-------------- 5-------- 6------|--------------------------------|
E| 6------ 8----------------------| 1-- 2---- 3---- 5--------------|
http://classicalguitartablature.blogspot.com/
http://classicalguitartablature.blogspot.com/
E| 7------------------------------|------------ 5-- 3---------- 5--|
B| 5----------10-- 5--------------|------------ 5-- 3---------- 2--|
G| 5---------- 7-- 2---------- 1--| 7---------- 5-- 3---------- 3--|
D|---- 5------ 9------ 5------ 3--|---- 5-------------- 3------ 2--|
A|---------------- 3------ 2------|--------------------------------|
E| 5------ 7----------------------| 6------ 5------ 3------ 2------|
http://classicalguitartablature.blogspot.com/
E|--------------------------------|---------------------------- 5--|
B| 1---------- 1------------------|------------10 8------------ 5 1|
G| 2---------- 2-- 5--------------| 7---------- 7-- 5---------- 2--|
D|---- 2------ 2------ 3------ 3--|---- 7------ 9------ 5------ 2--|
A|---------------- 5------ 4------|--------------------------------|
E| 1------ 0----------------------| 8------ 7------ 5------ 3------|
http://classicalguitartablature.blogspot.com/
E|--------------------------------|--------------------------------|
B|---------- 1--------------------|---------------- 1---------- 3--|
G| 2-------- 2---- 5--------------|------------ 2-- 2---------- 2--|
D|-- 0------ 2-------- 4---- 4----|---- 0------ 3------ 2------ 2--|
A|---------------- 5------ 3------| 2------ 0----------------------|
E| 2---- 0------------------------|---------------- 3------ 2------|
http://classicalguitartablature.blogspot.com/
E| 0 3-- 0------------------------|--------------------------------|
B| 3-- 3 3------------------------|--------------------------------|
G| 2-- 2 2------ 4------------ 2--| 2---------- 1-- 4-- 4------ 4--|
D|-------------------- 6------ 2--|---- 3------ 0---- 3-------- 2--|
A|---------------- 5------ 3------| 2------ 1----------------------|
E| 1------ 0----------------------|---------------- 5------ 4------|
http://classicalguitartablature.blogspot.com/
E| 7------------------------------|------------ 5-- 3---------- 5--|
B| 5----------10-- 5--------------|------------ 5-- 3---------- 2--|
G| 5---------- 7-- 2---------- 1--| 7---------- 5-- 3---------- 3--|
D|---- 5------ 9------ 5------ 3--|---- 5-------------- 3------ 2--|
A|---------------- 3------ 2------|--------------------------------|
E| 5------ 7----------------------| 6------ 5------ 3------ 2------|
http://classicalguitartablature.blogspot.com/
E|--------------------------------|---------------------------- 5--|
B| 1---------- 1------------------|------------10 8------------ 5 1|
G| 2---------- 2-- 5--------------| 7---------- 7-- 5---------- 2--|
D|---- 2------ 2------ 3------ 3--|---- 7------ 9------ 5------ 2--|
A|---------------- 5------ 4------|--------------------------------|
E| 1------ 0----------------------| 8------ 7------ 5------ 3------|
http://classicalguitartablature.blogspot.com/
E|--------------------------------|--------------------------------|
B|---------- 1--------------------|---------------- 1---------- 3--|
G| 2-------- 2---- 5--------------|------------ 2-- 2---------- 2--|
D|-- 0------ 2-------- 4---- 4----|---- 0------ 3------ 2------ 2--|
A|---------------- 5------ 3------| 2------ 0----------------------|
E| 2---- 0------------------------|---------------- 3------ 2------|
http://classicalguitartablature.blogspot.com/
E| 0 3-- 0------------------------|--------------------------------|
B| 3-- 3 3------------------------|--------------------------------|
G| 2-- 2 2------ 4------------ 2--| 2---------- 1 5-------- 3------|
D|-------------------- 6------ 2--|---- 3------ 0-- 5-- 3-- 3-- 2--|
A|---------------- 5------ 3------| 2------ 1----------------------|
E| 1------ 0----------------------|---------------- 5 4---- 3 2----|
http://classicalguitartablature.blogspot.com/
E|---- 8-- 8-- 8-- 8-- 7-- 7-- 5--| 5-- 3------------------------ 5|
B|10------ 5------ 7-- 7-- 6-- 5--| 5-- 5------------------------ 6|
G| 9------ 5------ 5-- 5-- 5-- 4--| 4-- 4-- 7-- 7------ 7------ 4 5|
D|--10----------------------------|---------- 5------ 5------ 3----|
A| 8---- 7-------- 6------ 5-- 4 3|--------------------------------|
E|--------------------------------|-------- 7------ 6------ 4---- 5|
http://classicalguitartablature.blogspot.com/
E|---- 8-- 8-- 8--10-- 8----------| 5------------------------------|
B|-------- 8------10--11--12--10--| 8-- 8--------------------------|
G|-------- 7------ 9--10--10--11--|------------ 5------ 3------ 3--|
D|-- 7--------------------12--10--|-- 5-- 5-- 5------ 3------ 2----|
A|--------------------------------| 7------ 6------ 5------ 4------|
E|------ 7------ 8-- 9----10--11--|--------------------------------|
http://classicalguitartablature.blogspot.com/
E|---- 8-- 8-- 8---------- 7------| 5 3----------------------------|
B|10------ 6------13--12-- 8--10--| 5---- 5---------------- 1------|
G|10---- 5--------12--12-- 7-- 9--| 5-- 5------ 5------ 7-- 1------|
D|--10------------10--10------10--|---------- 3------ 5-------- 0--|
A|------ 5---------------- 8-- 9--|------------------------ 3------|
E| 8--------------11--12-------- 3|-------- 5------ 7--------------|
http://classicalguitartablature.blogspot.com/
E|--------------------------------|--------------------------------|
B| 5------ 3-- 1------------------| 5-- 5---- 8---- 5--------------|
G| 3------ 0-- 3-------------- 3 5|---- 5---- 9---- 7---------- 5--|
D|---- 3-- 0-- 3------ 3------ 3 3|---- 6---- 7-------- 5------ 4--|
A| 5------------------------------|--------------------------------|
E|-------- 0------ 1------ 3------| 5-- 6---- 8---- 7------ 5------|
http://classicalguitartablature.blogspot.com/
E|--------------------------------| 0-- 0---- 3--------------------|
B| 5------------------------------| 3-- 1---- 5---- 5--------------|
G| 5---- 7-- 5---------------- 5--| 1-- 2---- 4---- 5--------------|
D|---- 6-- 7-- 3------ 3------ 6--|---------- 5-------- 5-- 6-- 7--|
A|-------------- 5-------- 6------|--------------------------------|
E| 6------ 8----------------------| 1-- 2---- 3---- 5--------------|
http://classicalguitartablature.blogspot.com/
E| 7---------- 5------------------|--------------------------------|
B| 6---------- 8---- 5------------|--------------------------------|
G| 4------ 4-- 7-- 2--------------|--------------------------------|
D|---- 6---------- 2--------------|--------------------------------|
A|---------------- 3--------------|--------------------------------|
E| 4---------- 6------------------|--------------------------------|
http://classicalguitartablature.blogspot.com/

0 ความคิดเห็น:

แสดงความคิดเห็น