To celebrate the anniversary, I am giving you (finally...) : iPhone LickByNeck !!!!!!

Top of the world

The Carpenters' hit fingerstyle chord melody guitar arrangement played in the key of E.

Top Of The World played in the key of E.
http://classicalguitartablature.blogspot.com/
E| 4-- 4-- 5 2---- 4-- 4 5--------|------ 5------ 4-------------- 4|
B| 5------ 5------ 2---- 7-- 7----| 9-- 9-- 7 7-- 2-- 0---- 5-- 7 5|
G| 4------ 4------ 2---- 6--------| 6------ 5------ 2-- 2-- 6-- 4 4|
D|--------------------------------| 7------------------ 2 6---- 4--|
A|------------------------ 7------| 6------ 5------ 4-- 2----------|
E| 4------ 3------ 2--------------|------------------------ 6-- 5--|
http://classicalguitartablature.blogspot.com/
E|---- 4-- 5 2---- 4-- 4 5--------|------ 5-------- 4--------------|
B|-------- 5------ 2---- 7-- 7----| 9-- 9-- 7 7---- 2--------------|
G|-------- 4------ 2---- 6--------| 6------ 5------ 2------ 4---- 4|
D|--------------------------------| 7------------------ 2------ 7 6|
A|------------------------ 7------| 6------ 5------ 4------ 6------|
E| 4------ 3------ 2--------------|--------------------------------|
http://classicalguitartablature.blogspot.com/
http://classicalguitartablature.blogspot.com/
E|-- 4----------------------------|------------------------ 4-- 5--|
B|-- 5---- 7-- 5-- 4-- 5-- 2-- 4--|------------------------ 3------|
G|-- 4---- 5-- 5-- 2-- 2-- 2-- 4--| 4-------------- 2------ 1---- 6|
D|-------- 5-- 5-- 2-- 2-- 2-- 4--| 2-- 2------ 2------ 2----------|
A|-------- 5------ 4-- 3-- 2------|--------------------------------|
E| 0-------------------------- 5--| 4------ 3------ 2------ 1---- 0|
http://classicalguitartablature.blogspot.com/
E| 7-- 7-- 7-- 4-- 2-- 4-- 5------| 4-------------------- 5-- 7-- 9|
B| 7------ 4-- 5-- 2-- 4-- 7-- 7--| 2---------- 3-------- 5-- 5-- 5|
G|-------- 4-- 5-- 2-- 2-- 4-- 5--|---- 1------ 1 2------ 4-- 5-- 6|
D|---------------------------- 7--|------------------ 0------------|
A|-------- 6-- 5-- 4-- 3-- 5-- 6--|--------------------------------|
E|--------------------------------| 0------ 1------ 2---- 3-- 4-- 5|
http://classicalguitartablature.blogspot.com/
E|------ 9------------------ 9----| 7---------- 7------------ 4----|
B|------10--10-- 7------ 7--11----| 4----10----10-- 9---- 7-- 5----|
G|------ 9-- 9-- 4-- 6---- 8 9----| 4---- 8---- 9-- 9---- 6-- 6-- 6|
D|----------10-- 4-- 7---- 7------|------ 9-------- 9-- 7 6------ 4|
A|-------------- 6---- 7-- 910----|--------------------------------|
E|---- 7-- 9--10------------------| 4-- 5-- 7-- 8-- 9-- 8 7-- 6----|
http://classicalguitartablature.blogspot.com/
E|-- 5---- 5 4--------------------|--------------------------------|
B|-- 5---- 5 2----10-- 9-- 7-- 5--|--------------------------------|
G|-- 4---- 4 2---- 7-- 6-- 6-- 5--| 4------------------ 4 2------ 4|
D|---------------- 9-- 7-- 7-- 4--| 2-------------- 4-- 3 2-- 1-- 6|
A|---------------- 8-- 7-- 6-- 5--| 4-- 3-- 2-- 0------------------|
E| 5 4---- 3-- 2------------------|---------------- 4-- 3 2---- 1 0|
http://classicalguitartablature.blogspot.com/
E|-- 4----------------------------|------------------------ 4-- 5--|
B|-- 5-- 7-- 5---- 4-- 5-- 2-- 4--|------------------------ 3------|
G|-- 4-- 5-- 5---- 2-- 2-- 2-- 4--| 4-------------- 2------ 1---- 6|
D|------ 5-- 5---- 2-- 2-- 2-- 4--| 2-- 2------ 2------ 2----------|
A|-------- 5------ 4-- 3-- 2------|--------------------------------|
E|---------------------------- 5--| 4------ 3------ 2------ 1---- 0|
http://classicalguitartablature.blogspot.com/
E| 7-- 7-- 7-- 4-- 2-- 4-- 5------| 4-------------------- 5-- 7-- 9|
B| 7------ 4-- 5-- 2-- 4-- 7-- 7--| 2---------- 3-------- 5-- 5-- 5|
G|-------- 4-- 5-- 2-- 2-- 4-- 5--|---- 1------ 1 2------ 4-- 5-- 6|
D|---------------------------- 7--|------------------ 0------------|
A|-------- 6-- 5-- 4-- 3-- 5-- 6--|--------------------------------|
E|--------------------------------| 0------ 1------ 2------ 3 4-- 5|
http://classicalguitartablature.blogspot.com/
E|------ 9------------------ 9----| 7---------- 7------------ 4----|
B|------10--10-- 7------ 7--11----| 4----10----10-- 9---- 7-- 5----|
G|------ 9-- 9-- 4-- 6---- 8 9----| 4---- 8---- 9-- 9---- 6-- 6-- 6|
D|----------10-- 4-- 7---- 7------|------ 9-------- 9-- 7 6------ 4|
A|-------------- 6---- 7-- 910----|--------------------------------|
E|---- 7-- 9--10------------------| 4-- 5-- 7-- 8-- 9-- 8 7-- 6----|
http://classicalguitartablature.blogspot.com/
E|-- 5---- 5 4--------------------|---------------------------- 2--|
B|-- 5---- 5 2----10-- 9-- 7-- 5--|---------------------- 5---- 3--|
G|-- 4---- 4 2---- 7-- 6-- 6-- 5--| 4------------------ 4 2---- 2--|
D|---------------- 9-- 7-- 7-- 4--| 2-------------- 4-- 3-- 2------|
A|---------------- 8-- 7-- 6-- 5--| 4-- 3-- 2-- 0------------------|
E| 5 4---- 3-- 2------------------|---------------- 4-- 3-- 2-- 1--|
http://classicalguitartablature.blogspot.com/
E|--------------------------------|-- 9---- 9-- 910---- 9-- 7-- 5--|
B|-- 9-- 9---- 910-- 9-- 7-- 5----|-- 9---- 9-- 9--10--10-- 9-- 7--|
G|-- 8-- 9------ 9-- 8-- 7-- 7----|-- 9---- 9-- 9-- 9--10-- 7-- 4--|
D|-- 9--10----10 7-- 7-- 7-- 6----|--------------------------------|
A|--------------------------------|--------11------ 9--10-- 8-- 6--|
E| 0----10------ 9-- 8-- 7---- 6--| 5------------------------------|
http://classicalguitartablature.blogspot.com/
E|---- 7---------------------- 9--| 7-------------------- 5-- 7----|
B| 9------12-- 9------ 9--10------|10-------------------- 5---- 5--|
G| 8------11------11------ 9------| 9---------- 7-- 7-- 4-- 4-- 4--|
D| 9------ 9------ 9------ 9------|---- 7------ 7-- 6-- 4----------|
A| 7------------------------------|--------------------------------|
E|--------11------10------ 9------| 8---- 7-------- 6-- 5-- 4-- 3--|
http://classicalguitartablature.blogspot.com/
E| 9------ 7-- 9--11------ 911----|1212--12-- 7-- 9------ 7---- 5 4|
B|10------ 7-- 9-- 7------1010----| 910-- 9-- 7-- 7------ 5---- 2 3|
G| 9------ 6-- 9-- 8------1111----| 9-- 8-- 9 6-- 6------ 4---- 2 1|
D|--------------------------------|--------------------------------|
A| 9--11--------------------------|--------------------------------|
E|-------- 5-- 6-- 7-- 9--11--10--| 9-- 8-- 7-- 6 5---- 4 3---- 2--|
http://classicalguitartablature.blogspot.com/
E|-- 7-- 5---- 4 2----------------|---------------------- 5-- 7----|
B|---- 7 7---- 5 5------ 5-- 4-- 5|---------------------- 5---- 5--|
G|---- 6 6---- 5 2------ 6-- 4-- 4|---------------- 7-- 4-- 4-- 4--|
D|---------------------- 7-- 4----|---- 6---- 6---- 6-- 4----------|
A|------ 6---- 5 4---- 3----------|--------------------------------|
E| 1-- 0---------------- 7---- 5 4|------ 7-------- 6-- 5-- 4-- 3--|
http://classicalguitartablature.blogspot.com/
E| 9------ 7-- 9--11------ 911----|1212--12-- 7-- 9------ 7---- 5 4|
B|10------ 7-- 9-- 7------1010----| 910-- 9-- 7-- 7------ 5---- 2 3|
G| 9------ 6-- 9-- 8------1111----| 9-- 8-- 9 6-- 6------ 4---- 2 1|
D|--------------------------------|--------------------------------|
A| 9--11--------------------------|--------------------------------|
E|-------- 5-- 6-- 7-- 9--11--10--| 9-- 8-- 7-- 6 5---- 4 3---- 2--|
http://classicalguitartablature.blogspot.com/
E|-- 7-- 5---- 4 2-------------- 4|---- 4-- 5 2---- 4-- 4 5--------|
B|---- 7 7---- 5 5------ 5-- 4-- 5|------ 5-------- 2---- 7-- 7----|
G|---- 6 6---- 5 2------ 6-- 4-- 4|-------- 4------ 2------ 6------|
D|---------------------- 7-- 4----|--------------------------------|
A|------ 6---- 5 4---- 3----------|------------------------ 7------|
E| 1-- 0---------------- 7---- 5 4|-------- 3------ 2--------------|
http://classicalguitartablature.blogspot.com/
E|------ 5------ 4-------------- 4|---- 4-- 5 2---- 4-- 4 5--------|
B| 9-- 9-- 7 7-- 2-- 0---- 5-- 7 5|-------- 5------ 2---- 7-- 7----|
G| 6------ 5------ 2-- 2-- 6-- 4 4|-------- 4------ 2------ 6------|
D| 7------------------ 2 6---- 4--|--------------------------------|
A| 6------ 5------ 4-- 2----------|------------------------ 7------|
E|------------------------ 6-- 5--| 4------ 3------ 2--------------|
http://classicalguitartablature.blogspot.com/
E|------ 5-------- 4--------------| 4------------------------------|
B| 9-- 9-- 7 7---- 2--------------| 5------------------------------|
G| 6------ 5------ 2------ 4------| 4------------------------------|
D| 7------------------ 2------ 7--| 6------------------------------|
A| 6------ 5------ 4------ 6------|--------------------------------|
E|--------------------------------| 4------------------------------|
http://classicalguitartablature.blogspot.com/

0 ความคิดเห็น:

แสดงความคิดเห็น