To celebrate the anniversary, I am giving you (finally...) : iPhone LickByNeck !!!!!!

Wild World - Cat Stevens

Wild World played in the key of A.
http://classicalguitartablature.blogspot.com/

http://classicalguitartablature.blogspot.com/
E|-------- 5-- 5-- 5-- 5 5 7------|-------------- 4-- 4 4 5--------|
B|-------- 2-- 2-- 7-- 7 710------| 9---- 9 9 9 9 5-- 5 5 5------ 5|
G|------ 2 2---- 2 4-- 4 4---- 9--| 9-- 9-- 7 7 7 4-- 4 4---- 4----|
D|---- 2------------------ 7------|-- 9---- 6 6 6------------ 4----|
A|---------------- 6--------------|--------------------------------|
E| 2------ 0------------ 9--------| 7------ 6---- 5-------- 4------|
http://classicalguitartablature.blogspot.com/
E| 2---------- 2---------- 4------|------------------------ 2-- 4--|
B| 3---- 3---- 3 7-- 7 7-- 7-- 7--| 6-------------- 6 6 6-- 5-- 2--|
G|---- 2---- 2-- 6---------- 6----|------ 4 6------ 4 4 4-- 4-- 2--|
D|-------------- 7----------------|---- 6------ 6-- 6 6 6----------|
A|-------------- 6-------- 5------| 4------------------------------|
E| 2------ 0----------------------|-------- 7---- 5 4------ 3-- 1--|
http://classicalguitartablature.blogspot.com/
E|-------- 5-- 5-- 5-- 5 5 7------|-------------- 4-- 4 4 5--------|
B|-------- 2-- 2-- 7-- 7 710------| 9---- 9 9 9 9 5-- 5 5 5------ 5|
G|------ 2 2---- 2 4-- 4 4---- 9--| 9-- 9-- 7 7 7 4-- 4 4---- 4----|
D|---- 2------------------ 7------|-- 9---- 6 6 6------------ 4----|
A|---------------- 6--------------|--------------------------------|
E| 2------ 0------------ 9--------| 7------ 6---- 5-------- 4------|
http://classicalguitartablature.blogspot.com/
E| 2---------- 2---------- 4------|--------------------------------|
B| 3---- 3---- 3 7-- 7 7-- 7-- 7--| 6------ 2-- 0------------------|
G|---- 2---- 2-- 6---------- 6----| 6------ 2-- 1------------------|
D|-------------- 7----------------| 6------ 4-- 2------ 2-------- 2|
A|-------------- 6-------- 5------| 4------ 6----------------------|
E| 2------ 0----------------------|---------------- 0------ 0------|
http://classicalguitartablature.blogspot.com/
E|--------------------------------|------ 9------ 7-------------- 5|
B|------ 5---- 3-------- 2-- 0 0--|------ 8---- 8 9-- 9--1012---- 7|
G|---- 4------ 2------ 2 2-- 2----|---- 2---- 6-- 9-- 9-- 911--11--|
D|-- 6------ 4------ 2---- 0------|-- 2---- 8-------- 9-- 7 9 9----|
A| 7------ 5---- 4-------- 2---- 0|------------------------------ 5|
E|--------------------------------|------ 6-------- 7---- 911------|
http://classicalguitartablature.blogspot.com/
E|---------------- 5 4 2----------|------ 4-- 4 4------------------|
B|-------- 7------ 2---- 5 3 2----|-------- 7 7 7--1010 7---- 5 5--|
G|---- 6-- 6---- 6-------- 2-- 4 2| 1------ 7 7 7-- 7 7 7-- 6---- 6|
D|-- 7-------- 7-------- 2--------|---- 2---------- 7-- 7-- 5------|
A|-------- 6----------------------|--------------------------------|
E|-------------- 0------ 2--------| 4------ 5------ 7------ 6------|
http://classicalguitartablature.blogspot.com/
E|-------------- 2-- 2 5------ 2--|-------- 9---------------- 7----|
B| 7---- 5-------- 5 5 310--10 5 5|--------12----12-- 9--10--------|
G| 6---- 4---- 4-- 4 4 2 2 9 9 2 2|---- 2-- 9----10--10-- 7------ 7|
D| 7---- 2-- 2---- 2 2-- 9-- 9-- 2|---- 2------ 9 9-- 9--11--------|
A|---------------------------- 4 2|--------11------10---- 9--------|
E| 5------ 4------ 3-- 2 1 010----| 5------------------------------|
http://classicalguitartablature.blogspot.com/
E|---------------- 5 4------------|------ 4-- 4 4 5-- 5 2------ 5--|
B|10------ 7---- 7---- 7 5 3 2----|------ 7-- 7-- 5-- 5 5------ 3--|
G|------ 7------ 6-------- 4-- 4 2|------ 1 6 6 6 4-- 4 4------ 2--|
D|---- 9------ 7-------- 3------ 2|---- 2--------------------------|
A| 8------ 7---- 6------ 5------ 4| 2---------------------------- 8|
E|--------------------------------|------ 5------ 4---- 3-- 2------|
http://classicalguitartablature.blogspot.com/
E| 7------ 5----------------------|-------- 5-- 5-- 5-- 5 5 7------|
B|10--10-- 5---------- 4------ 6--|-------- 2-- 2-- 7-- 7 710------|
G| 7-- 7-- 6---------- 4---- 6----|------ 2 2---- 2 4-- 4 4---- 9--|
D|---- 9------ 7---- 4---- 6------|---- 2------------------ 7------|
A|------ 7-------- 6---- 8--------|---------------- 6--------------|
E|--------------------------------| 2------ 0------------ 9--------|
http://classicalguitartablature.blogspot.com/
E|-------------- 4-- 4 4 5--------| 2---------- 2---------- 4------|
B| 9---- 9 9 9 9 5-- 5 5 5------ 5| 3---- 3---- 3 7-- 7 7-- 7-- 7--|
G| 9-- 9-- 7 7 7 4-- 4 4---- 4----|---- 2---- 2-- 6---------- 6----|
D|-- 9---- 6 6 6------------ 4----|-------------- 7----------------|
A|--------------------------------|-------------- 6-------- 5------|
E| 7------ 6---- 5-------- 4------| 2------ 0----------------------|
http://classicalguitartablature.blogspot.com/
E|------------------------ 2-- 4--|-------- 5-- 5-- 5-- 5 5 7------|
B| 6-------------- 6 6 6-- 5-- 2--|-------- 2-- 2-- 7-- 7 710------|
G|------ 4 6------ 4 4 4-- 4-- 2--|------ 2 2---- 2 4-- 4 4---- 9--|
D|---- 6------ 6-- 6 6 6----------|---- 2------------------ 7------|
A| 4------------------------------|---------------- 6--------------|
E|-------- 7---- 5 4------ 3-- 1--| 2------ 0------------ 9--------|
http://classicalguitartablature.blogspot.com/
E|-------------- 4-- 4 4 5--------| 2---------- 2---------- 4------|
B| 9---- 9 9 9 9 5-- 5 5 5------ 5| 3---- 3---- 3 7-- 7 7-- 7-- 7--|
G| 9-- 9-- 7 7 7 4-- 4 4---- 4----|---- 2---- 2-- 6---------- 6----|
D|-- 9---- 6 6 6------------ 4----|-------------- 7----------------|
A|--------------------------------|-------------- 6-------- 5------|
E| 7------ 6---- 5-------- 4------| 2------ 0----------------------|
http://classicalguitartablature.blogspot.com/
E|--------------------------------|--------------------------------|
B| 6------ 2-- 0------------------|------ 5---- 3-------- 2-- 0 0--|
G| 6------ 2-- 1------------------|---- 4------ 2------ 2 2-- 2----|
D| 6------ 4-- 2------ 2-------- 2|-- 6------ 4------ 2---- 0------|
A| 4------ 6----------------------| 7------ 5---- 4-------- 2---- 0|
E|---------------- 0------ 0------|--------------------------------|
http://classicalguitartablature.blogspot.com/
E|------ 9------ 7-------------- 5|---------------- 5 4 2----------|
B|------ 8---- 8 9-- 9--1012---- 7|-------- 7------ 2---- 5 3 2----|
G|---- 2---- 6-- 9-- 9-- 911--11--|---- 6-- 6---- 6-------- 2-- 4 2|
D|-- 2---- 8-------- 9-- 7 9 9----|-- 7-------- 7-------- 2--------|
A|------------------------------ 5|-------- 6----------------------|
E|------ 6-------- 7---- 911------|-------------- 0------ 2--------|
http://classicalguitartablature.blogspot.com/
E|------ 4-- 4 4------------------|-------------- 2-- 2 5------ 2--|
B|-------- 7 7 7--1010 7---- 5 5--| 7---- 5-------- 5 5 310--10 5 5|
G| 1------ 7 7 7-- 7 7 7-- 6---- 6| 6---- 4---- 4-- 4 4 2 2 9 9 2 2|
D|---- 2---------- 7-- 7-- 5------| 7---- 2-- 2---- 2 2-- 9-- 9-- 2|
A|--------------------------------|---------------------------- 4 2|
E| 4------ 5------ 7------ 6------| 5------ 4------ 3-- 2 1 010----|
http://classicalguitartablature.blogspot.com/
E|-------- 9---------------- 7----|---------------- 5 4------------|
B|--------12----12-- 9--10--------|10------ 7---- 7---- 7 5 3 2----|
G|---- 2-- 9----10--10-- 7------ 7|------ 7------ 6-------- 4-- 4 2|
D|---- 2------ 9 9-- 9--11--------|---- 9------ 7-------- 3------ 2|
A|--------11------10---- 9--------| 8------ 7---- 6------ 5------ 4|
E| 5------------------------------|--------------------------------|
http://classicalguitartablature.blogspot.com/
E|------ 4-- 4 4 5-- 5 2------ 5--| 7------ 5----------------------|
B|------ 7-- 7-- 5-- 5 5------ 3--|10--10-- 5----------------------|
G|------ 1 6 6 6 4-- 4 4------ 2--| 7-- 7-- 6----------------------|
D|---- 2--------------------------|---- 9-- 7----------------------|
A| 2---------------------------- 8|--------------------------------|
E|------ 5------ 4---- 3-- 2------|-------- 0----------------------|
http://classicalguitartablature.blogspot.com/

0 ความคิดเห็น:

แสดงความคิดเห็น