To celebrate the anniversary, I am giving you (finally...) : iPhone LickByNeck !!!!!!

Will You Still Love Me Tomorrow

Will You Still Love Me Tomorrow played in the key of C.
http://classicalguitartablature.blogspot.com/

http://classicalguitartablature.blogspot.com/
E|---------------------- 0--------|--------------------------------|
B|-------- 1-------- 1---------- 5|-- 3---------------- 3------ 3--|
G|-------- 2-------- 0---------- 5|-- 5------ 5-------- 4------ 4--|
D|-------- 0-- 0---- 2------------|------ 3------------ 3----------|
A|------------------------------ 5|---------------- 4--------------|
E| 1-------------- 0--------------|--------------------------------|
http://classicalguitartablature.blogspot.com/
E|--------------------------------|--------------------------------|
B| 3------------------ 1----------|--------------------------------|
G| 0-------- 0-- 1---- 1------ 1--| 5---------- 5 7---------- 7----|
D|------ 2------ 1---- 1------ 1--|---- 3------ 3------ 5---- 5----|
A| 3-------------- 1--------------|------------------------------ 3|
E|--------------------------------| 4---- 5------ 6-------- 7---- 6|
http://classicalguitartablature.blogspot.com/
E|--------------------------------|--------------------------------|
B|------ 1------ 1---- 3------ 3--|---- 1------------ 5---------- 5|
G|------ 0------ 0---- 0------ 1--|---- 1------------ 5------ 5-- 5|
D|-- 2---------- 0---- 0------ 1--|---------------------- 3------ 3|
A|---------------- 2--------------| 1------------------------------|
E|--------------------------------|-------------- 5-------------- 4|
http://classicalguitartablature.blogspot.com/
E|--------------------------------|--------------------------------|
B|------------ 3------------------|--------------------------------|
G|---------- 4-------- 4------ 4--|-------- 2-- 2------ 0------ 0--|
D|------ 3---- 3------ 3----------|-------- 2-- 2 0---- 0------ 0--|
A|--------------------------------|--------------------------------|
E|---------------- 3--------------| 2-------------- 1------------ 0|
http://classicalguitartablature.blogspot.com/
E|--------------------------------|------------------------ 5---- 5|
B|------ 1---------- 3---------- 3|------------------------ 5---- 6|
G|------ 0------ 5---------- 5-- 2|------------ 5---------- 5------|
D|------ 2-- 2---------- 3------ 2|------ 2---- 6------ 6----------|
A|-------------- 5-------------- 3|--------------------------------|
E|--------------------------------|---------------- 6--------------|
http://classicalguitartablature.blogspot.com/
E|------------ 3------------------|-------------------- 1-------- 0|
B|------------ 6------------------|-------------------- 0----------|
G| 5---------- 5------ 5------ 5--| 2------ 2---------- 0----------|
D|-------- 7---------- 3------ 3--| 2------ 2------------------ 0--|
A|--------------------------------|--------------------------------|
E| 5-------------- 4--------------| 2-------------- 1--------------|
http://classicalguitartablature.blogspot.com/
E|--------------------------------|--------------------------------|
B| 0------------------------------| 5---------------- 3---------- 3|
G| 1-------- 1------ 4-------- 4--| 2-------- 2------ 2---------- 2|
D|------ 0------------ 6----------| 2---- 2---------- 3-------- 3 2|
A|-------------- 5----------------| 3------------ 2------------ 0--|
E| 0------------------------------|--------------------------------|
http://classicalguitartablature.blogspot.com/
E|--------------------------------|--------------------------------|
B|---- 1---- 0---- 3---- 3--------|--------------------------------|
G|---------------- 5------ 5------|---- 5------ 5---- 2------ 2----|
D|---------------- 3------ 3------|---- 3-------------- 2---- 2----|
A|--------------------------------|--------------------------------|
E|---------------- 4--------------| 3-------------- 2--------------|
http://classicalguitartablature.blogspot.com/
E|---------------------- 0--------|--------------------------------|
B|-------- 1-------- 1---------- 5|-- 3---------------- 3------ 3--|
G|-------- 2-------- 0---------- 5|-- 5------ 5-------- 4------ 4--|
D|-------- 0-- 0---- 2------------|------ 3------------ 3----------|
A|------------------------------ 5|---------------- 4--------------|
E| 1-------------- 0--------------|--------------------------------|
http://classicalguitartablature.blogspot.com/
E|--------------------------------|--------------------------------|
B| 3------------------ 1----------|--------------------------------|
G| 0-------- 0-- 1---- 1------ 1--| 5---------- 5 7---------- 7----|
D|------ 2------ 1---- 1------ 1--|---- 3------ 3------ 5---- 5----|
A| 3-------------- 1--------------|------------------------------ 3|
E|--------------------------------| 4---- 5------ 6-------- 7---- 6|
http://classicalguitartablature.blogspot.com/
E|--------------------------------|--------------------------------|
B|------ 1------ 1---- 3------ 3--|---- 1------------ 5---------- 5|
G|------ 0------ 0---- 0------ 1--|---- 1------------ 5------ 5-- 5|
D|-- 2---------- 0---- 0------ 1--|---------------------- 3------ 3|
A|---------------- 2--------------| 1------------------------------|
E|--------------------------------|-------------- 5-------------- 4|
http://classicalguitartablature.blogspot.com/
E|--------------------------------|--------------------------------|
B|------------ 3------------------|--------------------------------|
G|---------- 4-------- 4------ 4--|-------- 2-- 2------ 0------ 0--|
D|------ 3---- 3------ 3----------|-------- 2-- 2 0---- 0------ 0--|
A|--------------------------------|--------------------------------|
E|---------------- 3--------------| 2-------------- 1------------ 0|
http://classicalguitartablature.blogspot.com/
E|--------------------------------|------------------------ 5---- 5|
B|------ 1---------- 3---------- 3|------------------------ 5---- 6|
G|------ 0------ 5---------- 5-- 2|------------ 5---------- 5------|
D|------ 2-- 2---------- 3------ 2|------ 2---- 6------ 6----------|
A|-------------- 5-------------- 3|--------------------------------|
E|--------------------------------|---------------- 6--------------|
http://classicalguitartablature.blogspot.com/
E|------------ 3------------------|-------------------- 1-------- 0|
B|------------ 6------------------|-------------------- 0----------|
G| 5---------- 5------ 5------ 5--| 2------ 2---------- 0----------|
D|-------- 7---------- 3------ 3--| 2------ 2------------------ 0--|
A|--------------------------------|--------------------------------|
E| 5-------------- 4--------------| 2-------------- 1--------------|
http://classicalguitartablature.blogspot.com/
E|--------------------------------|--------------------------------|
B| 0------------------------------| 5---------------- 3---------- 3|
G| 1-------- 1------ 4-------- 4--| 2-------- 2------ 2---------- 2|
D|------ 0------------ 6----------| 2---- 2---------- 3-------- 3 2|
A|-------------- 5----------------| 3------------ 2------------ 0--|
E| 0------------------------------|--------------------------------|
http://classicalguitartablature.blogspot.com/
E|--------------------------------|--------------------------------|
B|---- 1---- 0---- 3---- 3--------|--------------------------------|
G|---------------- 5------ 5------|---- 5------ 5---- 2------ 2----|
D|---------------- 3------ 3------|---- 3-------------- 2---- 2----|
A|--------------------------------|--------------------------------|
E|---------------- 4--------------| 3-------------- 2--------------|
http://classicalguitartablature.blogspot.com/
E|---------------------- 0--------|--------------------------------|
B|-------- 1-------- 1---------- 5|-- 3---------------- 3------ 3--|
G|-------- 2-------- 0---------- 5|-- 5------ 5-------- 4------ 4--|
D|-------- 0-- 0---- 2------------|------ 3------------ 3----------|
A|------------------------------ 5|---------------- 4--------------|
E| 1-------------- 0--------------|--------------------------------|
http://classicalguitartablature.blogspot.com/
E|--------------------------------|--------------------------------|
B| 3------------------ 1----------|--------------------------------|
G| 0-------- 0-- 1---- 1------ 1--| 5------ 5------ 3--------------|
D|------ 2------ 1---- 1------ 1--| 3------ 3---------- 3------ 2--|
A| 3-------------- 1--------------|--------------------------------|
E|--------------------------------| 5---------- 4-- 3------ 2------|
http://classicalguitartablature.blogspot.com/
E|------------------------------ 5|------ 5------ 5------ 5--------|
B|--------10--------10------10----| 6---- 6------ 6------ 6--------|
G|-------- 9-------- 9------ 9----| 5 5---------- 5----------------|
D|--------10--10----10------10----|------------------ 7------ 7----|
A| 8------------ 7----------------| 6-------------- 5--------------|
E|--------------------------------|--------------------------------|
http://classicalguitartablature.blogspot.com/
E|--------------------------------|--------------------------------|
B|10-------- 8--------------------|--------------------------------|
G| 9-------- 7------ 7------ 7----|---- 7---- 7------ 7-------- 7--|
D| 8---- 8-- 7------ 7------------|---- 5-------------- 5------ 5--|
A|--------------------------------|--------------------------------|
E| 9-------------- 8------------ 7|-------------- 6----------------|
http://classicalguitartablature.blogspot.com/
E|------ 5-------- 5------ 5---- 5|---------------- 3---- 1--------|
B|------ 6-------- 5------ 5---- 5|------------ 5-- 1------------ 5|
G|------------ 5-- 5--------------| 5---- 5-------- 2------------ 5|
D|---- 7-------------- 5------ 5--|---- 4------------ 3------ 3----|
A|--------------------------------|--------------------------------|
E| 5-------------- 3--------------| 2-------------- 1--------------|
http://classicalguitartablature.blogspot.com/
E|--------------------------------|--------------------------------|
B|-------- 5----------------------|--------------------------------|
G|-------- 5---------- 6------ 6--| 5------ 5-------- 3------ 3----|
D| 5------------------ 5------ 5--| 3------ 3---------- 2------ 2--|
A|---------------- 6--------------| 5------------ 4----------------|
E| 0------------------------------|--------------------------------|
http://classicalguitartablature.blogspot.com/
E|------ 5------------ 5------ 5--| 5------ 5---- 5----------------|
B|------ 6---------- 8-------- 8--| 6------ 5---- 5------10------10|
G|------ 5------------ 7------ 7--| 5------ 5------ 5---- 7--------|
D|--------------------------------|-- 5-------- 5------ 4------ 7--|
A|--------------------------------|---------------------- 8--------|
E| 8------------ 7----------------| 5------ 3------ 2--------------|
http://classicalguitartablature.blogspot.com/
E|--------------------------------|--------------------------------|
B|---------- 8-------------- 8----|------------------ 5------------|
G| 7---------- 9-------- 9--------|-------- 7-------- 7-- 7------ 5|
D| 9---- 9---- 9------ 9----------|-------- 7------------ 5------ 5|
A| 7------------------------------|--------------------------------|
E|--------------10----------------| 8------------ 7-------- 6------|
http://classicalguitartablature.blogspot.com/
E|--------------------------------|--------------------------------|
B|------------------------ 3------| 5-------------- 3------ 1------|
G|------------------ 5------------| 5-------- 5---- 2--------------|
D|------ 5------------ 3----------|------ 5------------ 0------ 0--|
A|--------------------------------|--------------------------------|
E| 5-------------- 4--------------| 3-------------- 2--------------|
http://classicalguitartablature.blogspot.com/
E| 5-------------- 3--------------|--------------------------------|
B| 3---------- 3-- 1--------------|---------------------- 3--------|
G| 2---- 2-------- 0-------- 0----| 3---- 4------ 5-------- 1------|
D|-------------------- 2----------|---- 5---- 3-------- 3---- 3----|
A|--------------------------------| 6------ 5---- 4-------- 2---- 3|
E| 1-------------- 0--------------|--------------------------------|
http://classicalguitartablature.blogspot.com/
E|--------------------------------|--------------------------------|
B|------ 1------ 1---- 3------ 3--|---- 1------------ 5---------- 5|
G|------ 0------ 0---- 0------ 1--|---- 1------------ 5------ 5-- 5|
D|-- 2---------- 0---- 0------ 1--|---------------------- 3------ 3|
A|---------------- 2--------------| 1------------------------------|
E|--------------------------------|-------------- 5-------------- 4|
http://classicalguitartablature.blogspot.com/
E|--------------------------------|--------------------------------|
B|------------ 3------------------|--------------------------------|
G|---------- 4-------- 4------ 4--|-------- 2-- 2------ 0------ 0--|
D|------ 3---- 3------ 3----------|-------- 2-- 2 0---- 0------ 0--|
A|--------------------------------|--------------------------------|
E|---------------- 3--------------| 2-------------- 1------------ 0|
http://classicalguitartablature.blogspot.com/
E|--------------------------------|------------------------ 5---- 5|
B|------ 1---------- 3---------- 3|------------------------ 5---- 6|
G|------ 0------ 5---------- 5-- 2|------------ 5---------- 5------|
D|------ 2-- 2---------- 3------ 2|------ 2---- 6------ 6----------|
A|-------------- 5-------------- 3|--------------------------------|
E|--------------------------------|---------------- 6--------------|
http://classicalguitartablature.blogspot.com/
E|------------ 3------------------|-------------------- 1-------- 0|
B|------------ 6------------------|-------------------- 0----------|
G| 5---------- 5------ 5------ 5--| 2------ 2---------- 0----------|
D|-------- 7---------- 3------ 3--| 2------ 2------------------ 0--|
A|--------------------------------|--------------------------------|
E| 5-------------- 4--------------| 2-------------- 1--------------|
http://classicalguitartablature.blogspot.com/
E|--------------------------------|--------------------------------|
B| 0------------------------------| 5---------------- 3---------- 3|
G| 1-------- 1------ 4-------- 4--| 2-------- 2------ 2---------- 2|
D|------ 0------------ 6----------| 2---- 2---------- 3-------- 3 2|
A|-------------- 5----------------| 3------------ 2------------ 0--|
E| 0------------------------------|--------------------------------|
http://classicalguitartablature.blogspot.com/
E|--------------------------------|--------------------------------|
B|---- 1---- 0---- 3---- 3--------|--------------------------------|
G|---------------- 5------ 5------|---- 5------ 5---- 2------ 2----|
D|---------------- 3------ 3------|---- 3-------------- 2---- 2----|
A|--------------------------------|--------------------------------|
E|---------------- 4--------------| 3-------------- 2--------------|
http://classicalguitartablature.blogspot.com/
E|---------------------- 0--------|--------------------------------|
B|-------- 1-------- 1---------- 5|-- 3---------------- 3------ 3--|
G|-------- 2-------- 0---------- 5|-- 5------ 5-------- 4------ 4--|
D|-------- 0-- 0---- 2------------|------ 3------------ 3----------|
A|------------------------------ 5|---------------- 4--------------|
E| 1-------------- 0--------------|--------------------------------|
http://classicalguitartablature.blogspot.com/
E|--------------------------------|--------------------------------|
B| 3------------------ 1----------|--------------------------------|
G| 0-------- 0-- 1---- 1------ 1--| 5------ 5------ 3--------------|
D|------ 2------ 1---- 1------ 1--| 3------ 3---------- 3------ 2--|
A| 3-------------- 1--------------|--------------------------------|
E|--------------------------------| 5---------- 4-- 3------ 2------|
http://classicalguitartablature.blogspot.com/
E|---------------------- 0--------|--------------------------------|
B|-------- 1-------- 1---------- 5|-- 3---------------- 3------ 3--|
G|-------- 2-------- 0---------- 5|-- 5------ 5-------- 4------ 4--|
D|-------- 0-- 0---- 2------------|------ 3------------ 3----------|
A|------------------------------ 5|---------------- 4--------------|
E| 1-------------- 0--------------|--------------------------------|
http://classicalguitartablature.blogspot.com/
E|--------------------------------|--------------------------------|
B| 3------------------ 1----------|------------------------ 0------|
G| 0-------- 0-- 1---- 1------ 1--| 5------ 5------ 3------ 0------|
D|------ 2------ 1---- 1------ 1--| 3------ 3---------- 3------ 0 2|
A| 3-------------- 1--------------|--------------------------------|
E|--------------------------------| 5---------- 4-- 3------ 1---- 0|
http://classicalguitartablature.blogspot.com/
E|--------------------------------|--------------------------------|
B| 1------------------------------|--------------------------------|
G| 4------------------------------|--------------------------------|
D|--------------------------------|--------------------------------|
A|--------------------------------|--------------------------------|
E|--------------------------------|--------------------------------|
http://classicalguitartablature.blogspot.com/

0 ความคิดเห็น:

แสดงความคิดเห็น