To celebrate the anniversary, I am giving you (finally...) : iPhone LickByNeck !!!!!!

Yesterday Once More

Yesterday once More played in the key of C.

The Carpenters' hit fingerstyle chord melody guitar arrangement played in the key of C.
http://classicalguitartablature.blogspot.com/
E|--------------------------------|-------- 3-------------------- 5|
B| 8---------- 8-------------- 3--| 5-------------- 8 5---- 8 5----|
G| 5------ 5---------- 5 5---- 4--| 4------------ 7-------------- 7|
D|---- 9-------------- 3-- 3-- 3--|---- 5---- 5-- 5----------------|
A| 7-------------- 5---------- 4--| 3------------------------------|
E|--------------------------------|-------------- 7-------------- 6|
http://classicalguitartablature.blogspot.com/
E|-------------------------- 3-- 5|-------- 7------ 0-- 3------ 5--|
B| 8---- 8---- 5-------- 5------ 5|---------------- 1-- 0------ 8--|
G|---------- 5---------- 5------ 5|---------------- 2-- 0------ 5--|
D|-- 5-------- 3---- 3------------|---- 5------ 5------------------|
A|--------------------------------|--------------------------------|
E|---------------- 5------------ 3|---------------- 2------ 1------|
http://classicalguitartablature.blogspot.com/
http://classicalguitartablature.blogspot.com/
E|------------------------ 3------|--------12------10-- 8----------|
B|------------ 8-- 5------ 5------|10------10------ 8-- 6------12--|
G|-------- 5------ 4------ 3------| 9------ 7------ 7-- 5------ 9--|
D|-- 5---------------- 5------ 5--|----10------ 9-------------- 9--|
A| 7-------------- 5------ 4------|--------------------------------|
E|--------------------------------| 8------ 7------ 6------ 5------|
http://classicalguitartablature.blogspot.com/
E|--------------------------------|---------------------------- 3--|
B|------------ 8-- 5-- 8------ 3--|------------------ 5---- 6-- 0--|
G|------------ 7-- 5-- 5------ 5--|-------------- 7-- 7-- 5---- 2--|
D|---- 9------ 9-- 5-- 7------ 3--|---- 3------ 3 5-- 5-- 3--------|
A|10------ 8------ 7------ 6------| 5------ 3----------------------|
E|--------------------------------|-------------- 7---- 6-- 5------|
http://classicalguitartablature.blogspot.com/
E|--------------------------------|-------- 3-------------------- 5|
B|---------------------------- 3--| 5-------------- 8 5---- 8 5----|
G|---- 2------------ 5-- 5---- 4--| 4------------ 7-------------- 7|
D|---- 3------------ 5---- 3-- 3--|---- 5---- 5-- 5----------------|
A|---------------- 7------ 5-- 4--| 3------------------------------|
E| 3------ 1----------------------|-------------- 7-------------- 6|
http://classicalguitartablature.blogspot.com/
E|-------------------------- 3-- 5|-------- 7------ 0-- 3------ 5--|
B| 8---- 8---- 5-------- 5------ 5|---------------- 1-- 0------ 8--|
G|---------- 5---------- 5------ 5|---------------- 2-- 0------ 5--|
D|-- 5-------- 3---- 3------------|---- 5------ 5------------------|
A|--------------------------------|--------------------------------|
E|---------------- 5------------ 3|---------------- 2------ 1------|
http://classicalguitartablature.blogspot.com/
E|---------------- 7------10------| 8-- 7--------------------------|
B|------------ 8--10------12------| 5-- 9------10----------13--12--|
G|-------- 5------ 7---------- 9--| 5-- 7------ 9----------11--11--|
D|-- 5---------------- 9----------|------------ 7------ 7--10--10--|
A| 7-------------- 8------11------|--------------------------------|
E|--------------------------------| 5------ 7------ 8------10--11--|
http://classicalguitartablature.blogspot.com/
E| 8-- 7------------------------ 8|-------- 8------ 5-- 8------10--|
B| 5-- 9--10--10------1012------ 6|-------- 6------ 5--10------ 8--|
G| 5-- 7-- 9---------- 9--10---- 5|-------- 5------ 4-- 9------ 7--|
D|--------10----------10------12--|---- 7------ 4------------------|
A| 7-- 8-- 9----10------11--------|------------------------ 9------|
E|--------------------------------| 5------ 4------ 3--------------|
http://classicalguitartablature.blogspot.com/
E|------------------------10------|12--12--12--12--12--------------|
B|----------------13------11------|12--------------15------15--13--|
G|---- 7-- 7-- 6--10----------10--|12--------------12--------------|
D|-------- 5-- 5------10----------|--------------------12--------10|
A| 8------ 7-- 6------------------|--------------14--------------12|
E|----------------10------ 9---- 8|--------------------------------|
http://classicalguitartablature.blogspot.com/
E|--------------------------------|--------------12------ 8--------|
B|12--1312----10---------------- 8|-------- 5----10------ 8------ 7|
G|12---------- 9---------- 9---- 5|-------- 4-------- 9-- 7------ 5|
D|------------10------------ 9----|---- 9---- 5---------------- 7--|
A|----------------10-- 9-- 8------| 7------ 5----------------------|
E|--------------------------------|-------------- 8-------- 7---- 5|
http://classicalguitartablature.blogspot.com/
E| 7-- 8-- 7-- 5---------- 8--10--|12--12--12--12--12--------------|
B| 5------ 6-- 5----------10-- 9--| 8------10------ 8------15--13--|
G|-------- 4-- 5---------- 9-- 7--| 9------ 9------ 9-- 9--12--13--|
D|-------------------- 5----------|------------------------14--12--|
A|------------------------ 9-- 8 7|------ 8------10--------12--13--|
E|-------- 4------ 3--------------|------------------------------ 8|
http://classicalguitartablature.blogspot.com/
E| 7-- 8-- 7----------------------| 3------------------------------|
B|10------10--10-------- 5--------| 6------------ 0----------------|
G| 9------ 7-- 7------ 6----------| 5------------ 0------ 5-- 3-- 2|
D|------------ 9------------ 5----|---- 3------ 3 0------ 3-- 5----|
A|--------------------------------|---------------------------- 4--|
E|------ 7-------- 6--------------| 5------ 3---- 1-- 0------------|
http://classicalguitartablature.blogspot.com/
E|-------------- 5-------- 7------| 8-- 7-- 8--10---------- 8-- 7--|
B|-------------- 8-------- 6------| 5------ 6--10----------10------|
G|-------------- 7-------- 4---- 5|-------- 4-- 9------ 9 9------ 7|
D|-- 3------ 3-------- 5------ 6--|--------------------------------|
A| 3---- 2------------------------|----------------10---- 9------ 8|
E|---------------- 6------ 4---- 5|-------- 4----------------------|
http://classicalguitartablature.blogspot.com/
E| 8 7-- 8----10---------- 8--10--|12------12----------------------|
B| 8---- 8----12----------10------|10------13------15--13----10----|
G|------ 7----10------10 9--------|10--10----13----12--10---- 9----|
D|--------------------12----------|----------------14--1210--10----|
A|-------- 7----------------------|--------13------12--1110--------|
E|----------------10---- 8------ 7|--------------------------------|
http://classicalguitartablature.blogspot.com/
E|-------------------- 5----------|--------------------------------|
B|-------- 5-- 5-- 5------ 5-- 8--|--------------------------------|
G|-------- 5------ 5------ 5-- 9--|---- 9------ 7-- 7--------------|
D|----10 7---------------- 4-- 8--|---- 8------ 7------ 5------ 5--|
A| 9---- 8-------- 7------ 5------|--------------------------------|
E|--------------------------------| 9---- 8-------------- 6------ 5|
http://classicalguitartablature.blogspot.com/
E|--------------------------------|-------------------- 1----------|
B|-- 5---- 5-- 5-- 5-- 3-- 1-- 8--| 5------ 5-- 5-- 5-- 3------ 3--|
G|-- 5---- 5-- 5-- 4-- 2-- 0-- 5--| 5------ 5-- 5-- 4-- 0------ 5--|
D|---- 3-- 3-- 3-- 3-- 2-- 0-- 7--|---- 5-- 3-- 3-- 5---------- 3--|
A|---------------------------- 6--| 7------ 5------ 3------ 2------|
E|-------- 4------ 3-- 2-- 1------|--------------------------------|
http://classicalguitartablature.blogspot.com/
E|--------------------------------|--------12--12--12--13------10--|
B|--------------------------------|--------15--13--13--12------10--|
G|------------ 4 0----------------| 4------14--13--12--10------ 9--|
D|---- 3------ 3---- 0---- 5-- 7--|---- 5--------------------------|
A|------------------------ 7-- 5--| 3------14--13--12------11------|
E| 5------ 3---- 1----------------|--------------------------------|
http://classicalguitartablature.blogspot.com/
E|--------------------------------|--------------------------------|
B|---------------------------- 3--|-- 5----------------------------|
G|-- 9------ 9------ 5---- 5-- 5--| 2------------------------------|
D|----------10------ 7---- 5-- 3--| 5------------------------------|
A|10---- 9-------- 8------ 7-- 5--| 3------------------------------|
E|--------------------------------|--------------------------------|
http://classicalguitartablature.blogspot.com/

0 ความคิดเห็น:

แสดงความคิดเห็น