To celebrate the anniversary, I am giving you (finally...) : iPhone LickByNeck !!!!!!

Your Song - Elton John

Your Song played in the key of C.

http://classicalguitartablature.blogspot.com/
E| 0------ 0------ 1------ 1------| 3------------------------------|
B| 1---- 1------ 1 1---- 1---- 1--| 3---- 3---- 3-------- 6------ 8|
G| 0 0-------- 0-- 2-- 2---- 2----|-- 4------ 4-------- 5------ 7--|
D|--------------------------------|------------------ 3------ 5----|
A| 3-------------- 3--------------| 3------------------------------|
E|--------------------------------|---------------- 5------ 7------|
http://classicalguitartablature.blogspot.com/
E| 0-------- 0---- 1------ 1------| 3------------------------------|
B| 1---- 1------ 1 1---- 1---- 1--| 3---- 3---- 3-------- 6------ 8|
G|---- 0------ 0-- 2-- 2---- 2----|-- 4------ 4-------- 5------ 7--|
D|--------------------------------|------------------ 3------ 5----|
A| 3-------------- 3--------------| 3------------------------------|
E|--------------------------------|---------------- 5------ 7------|
http://classicalguitartablature.blogspot.com/
http://classicalguitartablature.blogspot.com/
E|---- 0-- 0-- 0------------------|---------- 3---- 0--------------|
B|------ 3-- 3---- 5 5------------|---- 3-- 3-- 3-- 3---- 3 3------|
G|-- 0------------ 5 5-- 5---- 5--|------ 0 0------ 1-- 1-- 4-- 4--|
D| 2-------------- 3-- 3---- 3----|-- 0---- 0-------- 0------ 6-- 6|
A| 3------ 2----------------------|------------------------ 5------|
E|---------------- 5------ 4------| 3------ 1------ 0--------------|
http://classicalguitartablature.blogspot.com/
E|--------------------------------|---------- 0-- 0----------------|
B| 1---- 1 1---- 1 1--------------| 1 1-- 1-- 1 1 1-- 3 1------ 1--|
G| 2-- 2-- 2-- 2-- 2-- 2------ 5--| 2 2 2 2-- 2 2 2-- 2 2-- 2------|
D|-- 2------ 1------ 2------ 3----| 2 2 2 2---- 2---- 0 0---- 2----|
A| 3------ 2------ 0--------------|--------------------------------|
E|------------------------ 4---- 3|------ 2------ 1-------- 2------|
http://classicalguitartablature.blogspot.com/
E|---------------- 0--------------|------------ 5------------------|
B|---- 1-- 1-- 1-- 3-- 3----------|---- 5-- 8-- 8-- 5--------------|
G|---- 0-- 2-- 2-- 2-- 2-- 2-- 2--|---- 4-- 7-- 7-- 5 7-- 5-- 5-- 7|
D|-- 2---- 0 0------ 0-- 0 2 2----|-- 3-- 3 6 6-- 5 5 5-- 6-- 6-- 5|
A|--------------------------------|--------------------------------|
E| 3------ 2------ 1------ 2---- 4|-------- 7-- 6-- 5------ 6-- 7--|
http://classicalguitartablature.blogspot.com/
E|-------------- 3----------------|--------------------------------|
B|-- 1 1---- 5-- 510----10 5------|---- 1-- 1-- 1 3------ 3--------|
G|-- 0 0 5-- 5-- 5 7-- 7-- 7 7-- 5|------ 2 2------ 2-- 2 0---- 0--|
D| 2---- 6-- 3------ 7---- 5---- 5|-- 3------ 3-- 3-- 3------ 3----|
A| 3-------------- 8---- 7------ 6| 5------ 4------ 3------ 2------|
E|------ 6-- 5-- 3----------------|--------------------------------|
http://classicalguitartablature.blogspot.com/
E|---- 0-- 0-- 0------------------|---------- 3---- 0--------------|
B|------ 3-- 3---- 5 5------------|---- 3-- 3-- 3-- 3---- 3 3------|
G|-- 0------------ 5 5-- 5---- 5--|------ 0 0------ 1-- 1-- 4-- 4--|
D| 2-------------- 3-- 3---- 3----|-- 0---- 0-------- 0------ 6-- 6|
A| 3------ 2----------------------|------------------------ 5------|
E|---------------- 5------ 4------| 3------ 1------ 0--------------|
http://classicalguitartablature.blogspot.com/
E|--------------------------------|---------- 0-- 0----------------|
B| 1---- 1 1---- 1 1--------------| 1 1-- 1-- 1 1 1-- 3 1------ 1--|
G| 2-- 2-- 2-- 2-- 2-- 2------ 5--| 2 2 2 2-- 2 2 2-- 2 2-- 2------|
D|-- 2------ 1------ 2------ 3----| 2 2 2 2---- 2---- 0 0---- 2----|
A| 3------ 2------ 0--------------|--------------------------------|
E|------------------------ 4---- 3|------ 2------ 1-------- 2------|
http://classicalguitartablature.blogspot.com/
E|---------------- 0--------------|------------ 5------------------|
B|---- 1-- 1-- 1-- 3-- 3----------|---- 5-- 8-- 8-- 5--------------|
G|---- 0-- 2-- 2-- 2-- 2-- 2-- 2--|---- 4-- 7-- 7-- 5---- 5-- 5-- 7|
D|-- 2---- 0 0------ 0-- 0 2 2----|-- 3-- 3 6 6-- 5 5 5-- 6-- 6-- 5|
A|--------------------------------|--------------------------------|
E| 3------ 2------ 1------ 2---- 4|-------- 7-- 6-- 5------ 6-- 7--|
http://classicalguitartablature.blogspot.com/
E|-------------- 3----------------|--------------------------------|
B|-- 1 1---- 5-- 510----10 5------|---- 1-- 1-- 1 1----------------|
G|-- 0 0 5-- 5-- 5 7-- 7-- 7 7-- 5|------ 2 1------ 0------ 0---- 5|
D| 2---- 6-- 3------ 7---- 5---- 5|-- 3------ 3---- 2 0---- 0---- 3|
A| 3-------------- 8---- 7------ 6| 5------ 4------ 3 2-- 0--------|
E|------ 6-- 5-- 3----------------|------------------------ 3---- 5|
http://classicalguitartablature.blogspot.com/
E|---------------- 5--------------|--------------------------------|
B|---- 5-- 8 5 8-- 5-- 8 5-- 3 1--|------ 1------ 1 5 3 1------ 1--|
G|------ 7 7 7 7-- 5-- 7 7-- 2 2--|---- 2-- 2 2-- 1 5 5-- 0 2-- 2--|
D|-- 5---- 5 5 5---- 5 6 5-- 3 3 3|-- 3-- 3 3 3-- 1 3 3-- 2-- 2-- 2|
A|-------------------------- 3 4--| 5-- 4-- 3 2-- 1----------------|
E| 7------ 6------ 5-- 6 7--------|---------------- 5 4-- 3 0-- 1--|
http://classicalguitartablature.blogspot.com/
E|-- 0-- 3-------- 5--------------|---------------- 0--------------|
B| 1-- 1 5-- 5-- 8 8 8---- 5 3----|-------- 1-- 1-- 1 3------------|
G|-- 2-- 5-- 4-- 5 7 7---- 2 4-- 5|---- 2-- 0 2 2-- 0 5 5---- 5----|
D| 2-------- 3-- 7-- 5-- 5 2 3-- 3|-- 4-- 4 2 2 2---- 3 3-- 7---- 6|
A|------------------------ 3 4-- 5| 6------------------------------|
E| 2------ 3 4-- 5 6-- 7----------|-------- 0 1-- 2 3 4-- 5 7 6-- 5|
http://classicalguitartablature.blogspot.com/
E|-- 5---- 8-------- 5-- 5 8------|-- 5-- 5-- 8 3-- 5--------------|
B| 8-- 810---------- 8 8 8-- 8----| 8---- 8---- 5-- 5-- 5------ 5--|
G| 5---- 9------ 9 7---- 7-- 7 7--| 5---- 5---- 5---- 5------ 5----|
D| 5----------10---- 5------ 5----| 5------------------------------|
A|--------------------------------|------------------------------ 5|
E|------ 8------ 7------ 6--------| 5---- 4-------- 2------ 0------|
http://classicalguitartablature.blogspot.com/
E|--------------------------------|---------------- 0--------------|
B|----------10-- 8------ 5-- 3-- 3|------------ 1-- 1 3-------- 3--|
G|---- 5------ 7 7------ 7 7 5-- 5|-- 5-- 2---- 2-- 2 0-- 5 5-- 2--|
D|-- 4------ 7------ 5------ 3----|-- 3------ 2 2---- 2-- 5 3-- 3--|
A|--------------------------------|---------------------- 6 5---- 3|
E|-------- 8------ 7---- 6---- 5--| 4---- 3---- 2-- 1 0------------|
http://classicalguitartablature.blogspot.com/
E|--------------------------------|-- 5---- 8-------- 5-- 5 8------|
B|---- 3------ 3------------------| 8-- 810---------- 8 8 8-- 8----|
G|-- 2------ 2------ 7-------- 4--| 5---- 9------ 9 7---- 7-- 7 7--|
D| 3---- 3------ 3---- 6---- 3----| 5----------10---- 5------ 5----|
A|------ 2------------------------|--------------------------------|
E|-------------- 6-------- 4---- 5|------ 8------ 7------ 6--------|
http://classicalguitartablature.blogspot.com/
E|-- 5-- 5-- 8 3-- 5--------------|--------------------------------|
B| 8---- 8---- 5-- 5-- 5------ 5--|----------10-- 8------ 5-- 3-- 3|
G| 5---- 5---- 5---- 5------ 5----|---- 5------ 7 7------ 7 7 5-- 5|
D| 5------------------------------|-- 4------ 7------ 5------ 3----|
A|------------------------------ 5|--------------------------------|
E| 5---- 4-------- 2------ 0------|-------- 8------ 7---- 6---- 5--|
http://classicalguitartablature.blogspot.com/
E|---------------- 0--------------|---------------- 1------ 1------|
B|------------ 1-- 1 3-------- 1--|-------- 1------ 1---- 1---- 1--|
G|-- 5-- 2---- 2-- 2 0-- 5 5-- 0--|------ 0-------- 2-- 2---- 2----|
D|-- 3------ 2 2---- 2-- 5 3-- 2--|---- 2------ 2------------------|
A|---------------------- 6 5------| 3-------------- 3--------------|
E| 4---- 3---- 2-- 1 0------------|--------------------------------|
http://classicalguitartablature.blogspot.com/
E| 3------------------------------| 0-------- 0---- 1------ 1------|
B| 3---- 3---- 3-------- 6------ 8| 1---- 1------ 1 1---- 1---- 1--|
G|-- 4------ 4-------- 5------ 7--|---- 0------ 0-- 2-- 2---- 2----|
D|------------------ 3------ 5----|--------------------------------|
A| 3------------------------------| 3-------------- 3--------------|
E|---------------- 5------ 7------|--------------------------------|
http://classicalguitartablature.blogspot.com/
E| 3------------------------------|--------------------------------|
B| 3---- 3---- 3-------- 6------ 8|-- 5-- 3 5 3-- 5 5 5------------|
G|-- 4------ 4-------- 5------ 7--|-- 4-- 2 5 5-- 5 4--------------|
D|------------------ 3------ 5----|-- 5-- 3 6 3-- 3 5--------------|
A| 3------------------------------| 3---- 2------------------------|
E|---------------- 5------ 7------|-------- 6 5-- 4 3--------------|
http://classicalguitartablature.blogspot.com/
E|--------------------------------|--------------------------------|
B|--------------------------------|--------------------------------|
G|--------------------------------|--------------------------------|
D|--------------------------------|--------------------------------|
A|--------------------------------|--------------------------------|
E|--------------------------------|--------------------------------|
http://classicalguitartablature.blogspot.com/

0 ความคิดเห็น:

แสดงความคิดเห็น