To celebrate the anniversary, I am giving you (finally...) : iPhone LickByNeck !!!!!!
0 com

Beat It (BASIC)

Michael Jackson's classic tune fingerstyle chord melody guitar BASIC arrangement played in the key of Em.
You need to install the Flash plugin - http://www.webestools.com/

Beat It - BASIC ARRANGEMENT played in the key of Em
http://classicalguitartablature.blogspot.com/
E| 4------------------------------| 4------------------------------|
B| 1------------------------------| 1------------------------------|
G| 1------------------------------| 1------------------------------|
D|--------------------------------|--------------------------------|
A|--------------------------------|--------------------------------|
E| 4------------------------------| 4------------------------------|
http://classicalguitartablature.blogspot.com/
E| 1------------------------------| 1------------------------------|
B| 1------------------------------| 1------------------------------|
G| 1------------------------------| 1------------------------------|
D|--------------------------------|--------------------------------|
A|--------------------------------|--------------------------------|
E| 1------------------------------| 1------------------------------|
http://classicalguitartablature.blogspot.com/
E| 4------------------------------| 4------------------------------|
B| 1------------------------------| 1------------------------------|
G| 1------------------------------| 1------------------------------|
D|--------------------------------|--------------------------------|
A|--------------------------------|--------------------------------|
E| 4------------------------------| 4------------------------------|
http://classicalguitartablature.blogspot.com/
E|-------- 3----------------------|--------------------------------|
B| 4---------------------- 4------|------------------------ 4------|
G| 3------ 3-------------- 3------|-------- 3---------- 3-- 3------|
D| 5------------------ 5-- 5------|---- 5-- 5-------------- 5------|
A| 6------------------ 6----------|---- 6-------------- 6----------|
E|--------------------------------|--------------------------------|
http://classicalguitartablature.blogspot.com/
E|--------------------------------|--------------------------------|
B|--------------------------------|--------------------------------|
G|--------------------------------|--------------------------------|
D|--------------------------------|---------------------------- 2--|
A|--------------------------------|--------------------------------|
E|--------------------------------|--------------------------------|
http://classicalguitartablature.blogspot.com/
E|------------ 3-- 0-------- 2----|-- 0----------------------------|
B|-------- 0---------------- 3----|---- 3 3-------- 3--------------|
G|---- 0-------------- 0------ 2--|------ 2-------- 2--------------|
D|--------------------------------|------ 4-------- 4---------- 2--|
A|---------------------------- 5--|--------------------------------|
E| 0------------------------------|--------------------------------|
http://classicalguitartablature.blogspot.com/
E|---------- 3---- 3-- 0------ 2--|---- 0--------------------------|
B|-------- 0------------------ 3--|---- 3-- 3----------------------|
G|---- 0---------------------- 2--|---- 2---- 2--------------------|
D|--------------------------------|-------- 4------------------ 2--|
A|------------------------------ 5|--------------------------------|
E| 0------------------------------|--------------------------------|
http://classicalguitartablature.blogspot.com/
E|------------ 3-- 0-------- 2----|-- 0----------------------------|
B|-------- 0---------------- 3----|---- 3 3-------- 3--------------|
G|---- 0-------------- 0------ 2--|------ 2-------- 2--------------|
D|--------------------------------|------ 4-------- 4---------- 2--|
A|---------------------------- 5--|--------------------------------|
E| 0------------------------------|--------------------------------|
http://classicalguitartablature.blogspot.com/
E|---------- 3---- 3-- 0------ 2--|---- 0--------------------------|
B|-------- 0------------------ 3--|---- 3-- 3----------------------|
G|---- 0---------------------- 2--|---- 2---- 2--------------------|
D|--------------------------------|-------- 4----------------------|
A|------------------------------ 5|--------------------------------|
E| 0------------------------------|--------------------------------|
http://classicalguitartablature.blogspot.com/
E|-- 7-- 7---- 7-- 5-- 7-- 5-- 710|------------------------------ 7|
B|-- 0-- 0-------- 0---------- 010|----12--10----12------------12--|
G|---- 0 0-------- 0---------- 0--|11--11--11------11--------------|
D|--------------------------------|----12--12------12--------------|
A|--------------------------------|--------------------------------|
E|---- 0-- 0------ 0---------- 0--|----10--10------10--------------|
http://classicalguitartablature.blogspot.com/
E|---- 7-- 7-- 7-- 5-- 7 5---- 3 5|-------- 7---------------- 7----|
B|---- 0-- 0------ 0---------- 0--|---- 8-------------------- 7----|
G|---- 0-- 0------ 0---------- 0--|---- 7---------- 7---------- 7--|
D|--------------------------------|---------------- 7--------------|
A|--------------------------------|---- 5-- 5------ 5---------- 5--|
E|---- 0-- 0------ 0---------- 0--|--------------------------------|
http://classicalguitartablature.blogspot.com/
E| 5 3----------------------------| 2-- 0---------------- 0------ 3|
B|-------- 5-- 3-- 5---- 5---- 5--| 3-- 3-- 3-- 0 3----------------|
G|---------------- 5---------- 5--| 2-- 2-- 2---- 2----------------|
D|---------------- 5---------- 5--|-------- 4---- 4----------------|
A|---- 3-- 3------ 3---------- 3--|---- 5-- 5------ 5-------- 5----|
E|--------------------------------|--------------------------------|
http://classicalguitartablature.blogspot.com/
E|--------------------------------|----------------10--------------|
B|-- 5---------------------- 5----|------10--------10--------------|
G|--------------------------------|11----------11--11--------------|
D|--------------------------------|----12--------------------------|
A|--------------------------------|--------------------------------|
E|---- 0-- 0------ 0---------- 0--|----10--10------10----------10--|
http://classicalguitartablature.blogspot.com/
E|-- 7-- 7---- 7-- 5-- 7-- 5-- 710|------------------------------ 7|
B|-- 0-- 0-------- 0---------- 010|----12--10----12------------12--|
G|---- 0 0-------- 0---------- 0--|11--11--11------11--------------|
D|--------------------------------|----12--12------12--------------|
A|--------------------------------|--------------------------------|
E|---- 0-- 0------ 0---------- 0--|----10--10------10--------------|
http://classicalguitartablature.blogspot.com/
E|---- 7-- 7-- 7-- 5-- 7 5---- 3 5|-------- 7---------------- 7----|
B|---- 0-- 0------ 0---------- 0--|---- 8-------------------- 7----|
G|---- 0-- 0------ 0---------- 0--|---- 7---------- 7---------- 7--|
D|--------------------------------|---------------- 7--------------|
A|--------------------------------|---- 5-- 5------ 5---------- 5--|
E|---- 0-- 0------ 0---------- 0--|--------------------------------|
http://classicalguitartablature.blogspot.com/
E| 5 3----------------------------| 2-- 0---------------- 0------ 3|
B|-------- 5-- 3-- 5---- 5---- 5--| 3-- 3-- 3-- 0 3----------------|
G|---------------- 5---------- 5--| 2-- 2-- 2---- 2----------------|
D|---------------- 5---------- 5--|-------- 4---- 4----------------|
A|---- 3-- 3------ 3---------- 3--|---- 5-- 5------ 5-------- 5----|
E|--------------------------------|--------------------------------|
http://classicalguitartablature.blogspot.com/
E|---------------------- 7-- 7--10|------------------------------ 7|
B|-- 5--------------------------10|--12--10------12------10--------|
G|------------------------------11|--11----11----11------11--------|
D|--------------------------------|--12--12------12------12--------|
A|--------------------------------|--------------------------------|
E|---- 0-- 0------ 0---------- 0--|----10--10----10------------ 0--|
http://classicalguitartablature.blogspot.com/
E|---- 7------------------------ 7|-- 7------------------------ 7--|
B|--------------------------------|--------------------------------|
G|--------------------------------|--------------------------------|
D|--------------------------------|--------------------------------|
A|----------10-- 7---------- 9----|-- 7----------------------------|
E|---- 3-- 7----------------------|------10------10------------ 0--|
http://classicalguitartablature.blogspot.com/
E|---- 7-- 7-- 7-- 7------ 7--10--|-- 7------------------------ 5--|
B|---------------------------- 7--|---- 7---------------------- 0--|
G|---------------------------- 7--|---- 7---------------------- 0--|
D|--------------------------------|--------------------------------|
A|------------10--10-- 7------ 9--|---- 7--------------------------|
E|---- 3-- 7----------------------|--------10------10---------- 0--|
http://classicalguitartablature.blogspot.com/
E|---- 3--------------------------|---------------------------- 5--|
B|--------10------ 8--10------10--|---- 8--10------ 8---------- 0--|
G|---------------------------- 7--|---- 7-- 7------ 7---------- 0--|
D|---------------------------- 7--|---- 7-- 7------ 7--------------|
A|------------10--10-- 7------ 9--|---- 7--------------------------|
E|---- 3-- 7----------------------|--------10------10---------- 0--|
http://classicalguitartablature.blogspot.com/
E|---- 3--------------------------|---------------------- 5------ 7|
B|--------10------ 8--10------10--|---- 8--10---- 8----------------|
G|---------------------------- 7--|---- 7-- 7---- 7----------------|
D|---------------------------- 7--|---- 7-- 7------ 7--------------|
A|------------10--10-- 7------ 9--|---- 7--------------------------|
E|---- 3-- 7----------------------|--------10------10---------- 0--|
http://classicalguitartablature.blogspot.com/
E|---- 7------------------------ 7|-- 7------------------------ 7--|
B|--------------------------------|--------------------------------|
G|--------------------------------|--------------------------------|
D|--------------------------------|--------------------------------|
A|----------10-- 7---------- 9----|-- 7----------------------------|
E|---- 3-- 7----------------------|------10------10------------ 0--|
http://classicalguitartablature.blogspot.com/
E|---- 7-- 7-- 7-- 7------ 7--10--|-- 7------------------------ 5--|
B|---------------------------- 7--|---- 7---------------------- 0--|
G|---------------------------- 7--|---- 7---------------------- 0--|
D|--------------------------------|--------------------------------|
A|------------10--10-- 7------ 9--|---- 7--------------------------|
E|---- 3-- 7----------------------|--------10------10---------- 0--|
http://classicalguitartablature.blogspot.com/
E|---- 3--------------------------|---------------------------- 5--|
B|--------10------ 8--10------10--|---- 8--10------ 8---------- 0--|
G|---------------------------- 7--|---- 7-- 7------ 7---------- 0--|
D|---------------------------- 7--|---- 7-- 7------ 7--------------|
A|------------10--10-- 7------ 9--|---- 7--------------------------|
E|---- 3-- 7----------------------|--------10------10---------- 0--|
http://classicalguitartablature.blogspot.com/
E|---- 3--------------------------|---------------------- 5------ 3|
B|--------10------ 8--10------10--|---- 8--10---- 8----------------|
G|---------------------------- 7--|---- 7-- 7---- 7----------------|
D|---------------------------- 7--|---- 7-- 7------ 7--------------|
A|------------10--10-- 7------ 9--|---- 7--------------------------|
E|---- 3-- 7----------------------|--------10------10-------- 0----|
http://classicalguitartablature.blogspot.com/
E|-- 0----------------------------|---------------------- 5------ 3|
B|------------------------------ 7|--------------------------------|
G|---------------------- 9--------|-- 7----------------------------|
D|--------------------------------|--------------------------------|
A|------------10--10-- 7---- 9----|---- 7--------------------------|
E|---- 3-- 7----------------------|------10--------10-------- 0----|
http://classicalguitartablature.blogspot.com/
E|-- 0----------------------------|---------------------- 5------ 3|
B|------------------------------ 7|--------------------------------|
G|---------------------- 9--------|-- 7----------------------------|
D|--------------------------------|--------------------------------|
A|------------10--10-- 7---- 9----|---- 7--------------------------|
E|---- 3-- 7----------------------|------10--------10--------------|
http://classicalguitartablature.blogspot.com/
E|--------------------------------|---------------- 3------ 3------|
B|-- 5----------------------------|-------------------- 5---- 5----|
G|--------------------------------|--------------------------------|
D|--------------------------------|--------------------------------|
A|--------------------------------|--------------------------------|
E|---- 0 0------ 0------------ 0--| 0------ 0----------------------|
http://classicalguitartablature.blogspot.com/
E|--------------------------------|--------------------------------|
B|--------------------------------|--------------------------------|
G|--------------------------------|---------------- 7--------------|
D|--------------------------------|---------------- 7--------------|
A|--------------------------------|---------------- 5--------------|
E|---- 0-- 0------ 0---------- 0--| 0------ 0----------------------|
http://classicalguitartablature.blogspot.com/
E|--------------------------------|---------------- 3------ 3------|
B|--------------------------------|-------------------- 5---- 5----|
G| 9------------------------------|--------------------------------|
D| 9------------------------------|--------------------------------|
A| 7------------------------------|--------------------------------|
E| 0-- 0-- 0------ 0---------- 0--| 0------ 0----------------------|
http://classicalguitartablature.blogspot.com/
E|--------------------------------|--------------------------------|
B|--------------------------------|--------------------------------|
G|--------------------------------|---------------- 7--------------|
D|--------------------------------|---------------- 7--------------|
A|--------------------------------|---------------- 5--------------|
E|---- 0-- 0------ 0---------- 0--| 0------ 0----------------------|
http://classicalguitartablature.blogspot.com/
E| 2------------------------------|--------------------------------|
B| 5------------------------------|--------------------------------|
G| 4------------------------------|--------------------------------|
D| 2------------------------------|--------------------------------|
A| 2------------------------------|--------------------------------|
E| 0------------------------------|--------------------------------|
http://classicalguitartablature.blogspot.com/
0 com

Saving All My Love For You (BASIC)

Whitney Houston's classic tune fingerstyle chord melody guitar BASIC arrangement played in the key of G.
You need to install the Flash plugin - http://www.webestools.com/

Saving All My Love For You - BASIC ARRANGEMENT played in the key of G
http://classicalguitartablature.blogspot.com/
E|--------------------------------|--------------------------------|
B|-------- 3---------- 8------ 8 5|-------- 5-------------- 8------|
G|-------- 4---------- 7------ 7--| 5------ 5---------- 5------ 5--|
D|---- 4-------------- 5---- 6----|---- 5------------ 5------ 5----|
A|---------- 5 6-- 7--------------|---------- 7 6-- 5--------------|
E| 3---------------------- 6------| 5------------------------------|
http://classicalguitartablature.blogspot.com/
E| 2------------------ 0----------|---------------------------- 3 2|
B| 3-------- 3---- 3-------- 0 0--| 0------ 0---------------- 0-- 3|
G| 4------ 4-- 4-- 0--------------| 0-------- 0---- 0---- 0--------|
D|------ 4---------- 0---- 0------|---- 2------ 2------ 4----------|
A|--------------------------------| 0------------ 5----------------|
E| 3-------------- 0--------------|--------------------------------|
http://classicalguitartablature.blogspot.com/
E|-------------------- 0----------|--------------------------------|
B|---------- 3---- 3-------- 0 0--| 0---- 0---------------------- 0|
G| 4---- 4---- 4-- 0--------------| 0-------- 0-- 0------ 0-- 0 2 0|
D|---- 4------------ 0-- 0--------|---- 2------ 2------ 4----------|
A|--------------------------------| 0------------ 5----------------|
E| 3-------------- 0--------------|--------------------------------|
http://classicalguitartablature.blogspot.com/
E|---- 0--------------------------|---------- 0--------------------|
B|---------- 0--------------------|------ 3------------------------|
G|---------------- 2------ 2 0 2--| 4---------- 4-- 2-------- 0 2--|
D|-- 0-- 0---- 0-- 4-- 4----------| 5-- 5---------- 5------ 5------|
A|---------------- 6--------------| 5-------------- 4--------------|
E| 0------------------------------|--------------------------------|
http://classicalguitartablature.blogspot.com/
E|------ 0---- 3-- 7-------- 7----| 7------------------------------|
B| 0-- 3 3---- 3-- 8------ 8 8 8--| 8 810------------------ 8--10--|
G| 0---- 2-------- 7-- 7-- 7-- 7--| 9 9 9------ 9------ 8--10--10--|
D|-- 0------ 0------ 9---- 9-- 9--|---------- 8------ 7---- 9 9----|
A|--------------------------------| 9------------------------------|
E| 3------ 2------ 0------10------|-------- 8------ 7------ 9------|
http://classicalguitartablature.blogspot.com/
E| 7-- 7---------------------- 3--|--------------------------------|
B| 8-- 8--10--10-- 8------ 5-- 3--|------ 3---------------- 3------|
G| 9 9---- 7-- 7-- 5-- 5-- 5-- 2--|---- 2------ 2------ 0---- 0----|
D|-------- 7 7------ 5---- 5------|-- 2------ 2------ 0-------- 0--|
A|------------------------ 5------|--------------------------------|
E| 8------ 7------ 5--------------| 3-------------- 3--------------|
http://classicalguitartablature.blogspot.com/
E|--------------------------------|--------------------------------|
B|---- 0 0---- 0 1---- 0---- 0 0--|---------------------------- 0--|
G|---- 2-- 2-- 2 2---- 2---- 2 2 2|---- 0---- 0-- 0------ 0--------|
D|-- 2------ 2------ 1---- 1---- 2|------ 2---- 2------ 2----------|
A|---------------- 2--------------|--------------------------------|
E| 2------------------------------| 0------------ 0----------------|
http://classicalguitartablature.blogspot.com/
E|-------------- 0----------------|---------------------------- 2--|
B|---- 3 3---- 3 3---- 3 3------ 0|-------- 0-------------- 0------|
G|---- 5 5---- 5 5---- 5 5------ 0|---- 0------ 0------ 0----------|
D|-- 5------ 5---------------- 5--|-- 0------ 0------ 0------ 0----|
A|-------------- 5----------------|--------------------------------|
E| 5---------------------------- 3|---------------- 3--------------|
http://classicalguitartablature.blogspot.com/
E|---------------- 3-- 2----------|------------------------------ 5|
B| 7-- 7-- 7-- 7-- 2-- 2------ 5 4|---- 2 4---- 2 4---- 7-------- 5|
G| 4-- 4-- 4-- 4-- 3-------- 3----| 3-- 3 3---- 3 4---- 4---- 4 4--|
D| 5 5------ 5------ 2---- 2------|-- 4------ 4-- 4-- 4---- 4------|
A| 4------------------------------| 2------------------------------|
E|---------------- 2--------------|-------------- 4----------------|
http://classicalguitartablature.blogspot.com/
E|---- 5------ 5-- 7-- 5----------|10------------------------------|
B|---- 5---- 8---- 5-- 5------ 8--| 8-------------------------- 8--|
G| 5---- 5-------- 5 5------ 5----| 9------ 9------ 9-------- 9----|
D|-- 5-------------------- 5------|--------10------10------10------|
A|--------------------------------|--------------------------------|
E| 5-------------- 5--------------|101010--101010--10--------------|
http://classicalguitartablature.blogspot.com/
E| 2------------------ 0-------- 7|---------- 7---- 7-- 5----------|
B| 3-------- 3-- 3------------ 3--| 8------ 8-- 8-- 5 8-------- 5--|
G| 4---- 4---- 4-- 0-------- 0----| 5-- 5---------- 5-------- 7----|
D|---- 4---------- 0---- 0--------|-- 5----------------------------|
A|--------------------------------|---------------- 5---- 5--------|
E| 3-------------- 0--------------| 5------------------------------|
http://classicalguitartablature.blogspot.com/
E| 7-------- 7-- 7---- 5----------| 7-------- 7-- 7----------------|
B| 8------ 8 8 8-- 8 8-------- 5--| 8---- 8-- 8 8 8-- 810---- 810--|
G| 7-- 7-- 7------ 5------ 5 7----| 7-- 7 7---- 7 9---------- 9 9--|
D|-- 9----------------------------|-- 9----------------------------|
A| 7-------------- 6--------------|--------------------------------|
E|--------------------------------|10------------ 9-------- 9------|
http://classicalguitartablature.blogspot.com/
E| 7---- 7-------- 7-------- 7----| 7------------------------------|
B| 810 8-- 710 8-- 810 8-- 8-- 8--| 8 810------------------ 8--10--|
G| 7 7 7-- 7 7 7-- 7 7 7-- 7------| 9 9 9------ 9------ 8--10--10--|
D|---------- 7 7---- 9 9-- 9------|---------- 8------ 7---- 9 9----|
A|10------ 9------ 7--------------| 9------------------------------|
E|------------------------10------|-------- 8------ 7------ 9------|
http://classicalguitartablature.blogspot.com/
E| 7-- 7--------------------------| 7-- 7--------------------------|
B| 8-- 8--10--10-- 8-------- 3 5--| 8-- 8--10--10-- 8-------- 3 5--|
G| 9 9---- 7-- 7-- 5-- 5---- 5 5--| 9 9---- 7-- 7-- 5-- 5---- 5 5--|
D|-------- 7 7------ 5------ 3 3--|-------- 7 7------ 5------ 3 3--|
A|------------------------ 5------|------------------------ 5------|
E| 8------ 7------ 5--------------| 8------ 7------ 5--------------|
http://classicalguitartablature.blogspot.com/
E| 7-- 7----------------------10--|--------------------------------|
B| 8-- 8--10--10-- 8------ 5--10--|--------10----------------------|
G| 9 9---- 7-- 7-- 5-- 5-- 5-- 9--|---- 9-------------- 7------ 7--|
D|-------- 7 7------ 5---- 5------|-- 9-------------- 9------ 6----|
A|------------------------ 5------|10-------- 9 8-- 7--------------|
E| 8------ 7------ 5--------------|------------------------ 6------|
http://classicalguitartablature.blogspot.com/
E|--------------------------------|10------------------------------|
B|-------- 5-------------- 8------|10------10----------------------|
G|---- 5-------------- 5------ 5--| 9---- 9------------ 7------ 7--|
D|-- 5-------------- 7------ 7----|-- 9-------------- 9------ 6----|
A|---------- 7 6-- 5--------------|10-------- 9 8-- 7--------------|
E| 5------------------------------|------------------------ 6------|
http://classicalguitartablature.blogspot.com/
E|--------------------------------|---------------- 3--------------|
B|-------- 5------------------ 8--|------------------------ 3------|
G|------ 5---------------- 5------|-------------- 2---- 2---- 2----|
D|-- 5---------------- 5----------|------------------ 2-------- 2--|
A|------------ 7 6-- 5------------|--------------------------------|
E| 5------------------------------|-------------- 3----------------|
http://classicalguitartablature.blogspot.com/
E|--------------------------------|--------------------------------|
B|--------------------------------|--------------------------------|
G| 2------------------------------|--------------------------------|
D|--------------------------------|--------------------------------|
A|--------------------------------|--------------------------------|
E|--------------------------------|--------------------------------|
http://classicalguitartablature.blogspot.com/
0 com

Love Is Blue (BASIC)

Popular tune fingerstyle chord melody guitar BASIC arrangement played in the key of Em.

http://classicalguitartablature.blogspot.com/
http://classicalguitartablature.blogspot.com/
Love Is Blue - BASIC ARRANGEMENT played in the key of Em
http://classicalguitartablature.blogspot.com/
E|-------- 3-------------- 5------|-------- 3-------------- 5------|
B|-- 5------ 5-------- 5---- 5----|---- 5---- 5-------- 5---- 5----|
G|-- 4 4------------ 6 6------ 6--|-- 4 4------------ 6-- 6---- 6--|
D|--------------------------------|--------------------------------|
A|---------------- 0--------------|---------------- 0--------------|
E| 0------------------------------| 0------------------------------|
http://classicalguitartablature.blogspot.com/
E| 7-------------- 5--------------|------------------------------ 0|
B|------ 0-------------- 5---- 8--| 7---- 5------ 3------ 3------ 0|
G|---- 0------ 0------ 6----------|---- 5-------------- 0----------|
D|---- 0------------ 5------------|-- 7------ 7------ 0-------- 0--|
A|---------------- 0--------------| 5------------------------------|
E| 0------------------------------|-------------- 3-------------- 0|
http://classicalguitartablature.blogspot.com/
E|------ 3-- 2---- 3---------- 0--|---- 0--------------------------|
B|---------------- 1---- 1--------| 3------ 3------ 0---- 0--------|
G|---- 0---------------- 0--------| 2------ 2------ 0---- 0--------|
D|-- 0---------------- 2----------|------------ 4------ 0------ 0--|
A|---------------- 3--------------| 5------------------------------|
E|--------------------------------|---------------- 3--------------|
http://classicalguitartablature.blogspot.com/
E| 7-------------- 5--------------|------------------------------ 0|
B|------ 0-------------- 5---- 8--| 7---- 5------ 3------ 3------ 0|
G|---- 0------ 0------ 6----------|---- 5-------------- 0----------|
D|---- 0------------ 5------------|-- 7------ 7------ 0-------- 0--|
A|---------------- 0--------------| 5------------------------------|
E| 0------------------------------|-------------- 3-------------- 0|
http://classicalguitartablature.blogspot.com/
E|------ 3-- 2---- 3---------- 0--|---------------- 0--------------|
B|---------------- 1---- 1--------| 4-- 2-- 4------ 0---- 0--------|
G|---- 0---------------- 0--------| 2-- 2-- 2---- 2---- 0----------|
D|-- 0---------------- 2----------| 4-- 4-- 4 4------ 0------ 0----|
A|---------------- 3--------------| 2------------------------------|
E|--------------------------------|---------------- 0--------------|
http://classicalguitartablature.blogspot.com/
E| 7-------------- 5--------------|------------------------------ 0|
B|------ 0-------------- 5---- 8--| 7---- 5------ 3------ 3------ 0|
G|---- 0------ 0------ 6----------|---- 5-------------- 0----------|
D|---- 0------------ 5------------|-- 7------ 7------ 0-------- 0--|
A|---------------- 0--------------| 5------------------------------|
E| 0------------------------------|-------------- 3-------------- 0|
http://classicalguitartablature.blogspot.com/
E|------ 3-- 2---- 3---------- 0--|---- 0--------------------------|
B|---------------- 1---- 1--------| 3------ 3------ 0---- 0--------|
G|---- 0---------------- 0--------| 2------ 2------ 0---- 0--------|
D|-- 0---------------- 2----------|------------ 4------ 0------ 0--|
A|---------------- 3--------------| 5------------------------------|
E|--------------------------------|---------------- 3--------------|
http://classicalguitartablature.blogspot.com/
E| 7-------------- 5--------------|------------------------------ 0|
B|------ 0-------------- 5---- 8--| 7---- 5------ 3------ 3------ 0|
G|---- 0------ 0------ 6----------|---- 5-------------- 0----------|
D|---- 0------------ 5------------|-- 7------ 7------ 0-------- 0--|
A|---------------- 0--------------| 5------------------------------|
E| 0------------------------------|-------------- 3-------------- 0|
http://classicalguitartablature.blogspot.com/
E|------ 3-- 2---- 3---------- 0--|---------------- 0--------------|
B|---------------- 1---- 1--------| 4-- 2-- 4------ 0---- 0--------|
G|---- 0---------------- 0--------| 2-- 2-- 2---- 2---- 0----------|
D|-- 0---------------- 2----------| 4-- 4-- 4 4------ 0------ 0----|
A|---------------- 3--------------| 2------------------------------|
E|--------------------------------|---------------- 0--------------|
http://classicalguitartablature.blogspot.com/
E|--------------------------------| 4------------ 5-------------- 7|
B|------ 0-------------- 0--------| 5---- 5-------------- 5------ 9|
G|---- 0---------------- 2-- 2----| 4-- 4---- 4-- 6---- 6----------|
D|-- 0-------- 0------ 1----------|-- 6-------------- 7------ 7----|
A|---------------- 2--------------|---------------- 0--------------|
E| 0------------------------------| 0------------------------------|
http://classicalguitartablature.blogspot.com/
E|--------------------------------|---------------- 9--------------|
B|------ 9---------------- 9------|--------10--------------10------|
G| 9---- 9------------ 9------ 9--| 9---- 9-------------- 9--------|
D|---- 9------ 9---- 9------------|----11------11----11--------11--|
A|--------------------------------| 0-------------- 0--------------|
E| 0-------------- 0--------------|--------------------------------|
http://classicalguitartablature.blogspot.com/
E| 7------------------------------| 4------------ 7----------------|
B| 5------ 5-------------- 5------| 4------ 4-------------- 4------|
G| 4-- 4---------------- 4--------|------ 4-------------- 4--------|
D|-- 6-------- 6---- 6-------- 6--|---- 4------ 4------ 4------ 4--|
A|--------------------------------|---------------- 6--------------|
E| 0-------------- 0--------------| 4------------------------------|
http://classicalguitartablature.blogspot.com/
E| 2-------------------- 2---- 4--| 5---------------------- 2------|
B| 2---- 2------------------------| 2------ 2------------------ 4--|
G|---- 2-------------- 2----------|---- 2------ 2------ 2----------|
D|-- 2------ 2------ 2------------|---- 2------------ 2------------|
A|-------------- 4----------------| 2------------ 2----------------|
E| 2------------------------------|--------------------------------|
http://classicalguitartablature.blogspot.com/
E| 0---------------------- 5------|-------- 3---------------- 5----|
B| 0---- 0------------ 5---- 5----|---- 5---- 5-------- 5-------- 5|
G|---- 0------ 0---- 6 6------ 6--|-- 4 4------------ 6---- 6------|
D|-- 2 2--------------------------|--------------------------------|
A|---------------- 0--------------|---------------- 0--------------|
E| 0------------------------------| 0------------------------------|
http://classicalguitartablature.blogspot.com/
E|---------------------------- 0--|--------------------------------|
B|---------------------------- 0--|--------------------------------|
G|-- 6---------------------- 0----|--------------------------------|
D|--------------------------------|--------------------------------|
A|--------------------------------|--------------------------------|
E|-------------------------- 0----|--------------------------------|
http://classicalguitartablature.blogspot.com/
0 com

I Want To Know What Love Is (BASIC)

The Foreigner's classic tune fingerstyle chord melody guitar BASIC arrangement played in the key of Em.

I Want To Know What Love Is - BASIC ARRANGEMENT played in the key of Em
http://classicalguitartablature.blogspot.com/
E|--------------------------------|---- 3 0---- 0------------------|
B| 0------ 0-- 0------ 0----------|---- 0-- 3------ 0--------------|
G| 0------ 0-- 0------ 0---- 2----|---- 0-- 0------ 0---------- 0--|
D| 0------------ 0---- 0---- 4----|-------- 0-------------- 0------|
A|-------------------------- 5----|--------------------------------|
E| 0-------------- 0--------------| 3------------------------------|
http://classicalguitartablature.blogspot.com/
E|--------------------------------|--------------------------------|
B| 1-------- 1---- 8------ 8---- 8|---------------- 8------ 8------|
G| 0-------- 0---- 7------ 7---- 7|---------------- 7------ 7---- 7|
D| 2-------- 2---- 9------ 9---- 9|---------------- 9------ 9---- 9|
A| 3-------- 3--------------------|-------- 7--10-- 7--------------|
E|---------------- 0--------------| 7--10--------------------------|
http://classicalguitartablature.blogspot.com/
E|--------------------------------|--------------------------------|
B|------ 0---- 0 0 0--------------|-------- 0-------------- 0-- 0--|
G|------ 0---------- 2 2-- 0---- 0|-------- 0------------------ 2--|
D|---- 0--------------------------|---- 0-------------- 0----------|
A|--------------------------------|--------------------------------|
E| 0------------------------------| 3------------ 3 3--------------|
http://classicalguitartablature.blogspot.com/
E|--------------------------------|--------------------------------|
B| 1 0---------- 0-- 0------------|---------------------- 8------ 0|
G| 0---- 2-- 0------------ 2 0----|---------------------- 7------ 7|
D| 2------------------------------|---------------------- 9--------|
A| 3------------------------------|-------- 710-- 7----------------|
E|---------------- 0--------------| 7--10--------------------------|
http://classicalguitartablature.blogspot.com/
E|--------------------------------|--------------------------------|
B|---------- 0 0 0----------------|---------------------------- 0--|
G|-------- 0-------- 2 2-- 0------| 0------ 0------------ 0-- 2 0--|
D|-- 0----------------------------| 0------------------ 0----------|
A|--------------------------------|--------------------------------|
E| 0------------------------------| 3------------ 3 3--------------|
http://classicalguitartablature.blogspot.com/
E|--------------------------------|-------------- 0-------- 3------|
B| 1 0---------- 0---- 0----------|-------- 0---- 0-------- 3------|
G| 0---- 2-- 0-- 0---- 0---- 2 0--|-------- 0---- 0-------- 4------|
D| 2------------------------ 2 2--|-- 2-------- 2------------------|
A| 3------------------------------|--------------------------------|
E|---------------- 0--------------| 0-------------- 0------ 3------|
http://classicalguitartablature.blogspot.com/
E| 5------------------------------| 7-- 5--------------------------|
B| 5-- 8 5-------------- 5-- 5----| 7-- 7------ 8-- 7-- 5-------- 5|
G| 5-- 5 5------------ 5 5-- 5----| 7-- 7---------- 5-- 5-------- 7|
D|---- 5 5---------- 5-- 5-- 5----|---------------- 5-- 5------ 5 7|
A|--------------------------------|--------------------------------|
E| 5-------- 5 5------------------| 5------ 5------ 5------ 5------|
http://classicalguitartablature.blogspot.com/
E|------------ 5------------------| 7-- 5--------------------------|
B|---- 8------ 5---- 8 5-- 5-- 5--| 7-- 7---- 8-- 7---- 5----------|
G|---- 7------ 5---- 5 5-- 5-- 5--| 7-- 7-------- 5---- 5----------|
D|---- 7------------ 5 5-- 5-- 5--|-------------- 5---- 5---- 5----|
A|--------------------------------|--------------------------------|
E| 5------ 5------ 5------ 5------| 5------ 5------ 5---- 5------ 5|
http://classicalguitartablature.blogspot.com/
E|-- 7---- 5---- 5----------------| 7-- 5--------------------------|
B|-- 7---- 7 8-- 5-- 8-- 5-- 5----| 7-- 7---- 8-- 7---- 5-------- 8|
G|-- 7---- 7 7-- 5-- 5-- 5-- 5----| 7-- 7-------- 5---- 5-------- 7|
D|---------- 5------ 5-- 5-- 5----|-------------- 5---- 5---- 5-- 7|
A|--------------------------------|--------------------------------|
E|------ 5------ 5-------- 5------| 5------ 5------ 5---- 5------ 8|
http://classicalguitartablature.blogspot.com/
E|------ 7------ 8------ 7--------|--------------------------------|
B|------ 7------ 5------ 5---- 8--|---- 5-------------- 5----------|
G|------ 7------ 5------ 5---- 5--|-- 7---------- 7---------- 7----|
D|---- 7---- 7------ 5-------- 7--|-- 7------ 7--------------------|
A|------------------------------ 5|--------------------------------|
E|------ 7-------- 5---- 3--------|--------------------------------|
http://classicalguitartablature.blogspot.com/
E|---------- 7 7 7 7--------------|------------------10------------|
B|---------- 8 8 8 8 8---- 8--10--|------------10--------10----12--|
G| 7------ 7 7 7-- 7 7---- 7--11--|--------11----------------------|
D| 9-- 9------------------ 9--12--|----12----------12--------------|
A|10---------------------- 7------|--------------------------------|
E|--------------------------------|10------------------------------|
http://classicalguitartablature.blogspot.com/
E|-------------- 8---- 7 7---- 7--|--------------------10----------|
B|------------ 5 5---- 5-- 5-- 8--|--10--------10----------10--12--|
G|-------- 5------ 5-- 5-- 5-- 7--|--11--------11--11--------------|
D|---- 5--------------------------|--12----12----------------------|
A|---------------------------- 7--|--------------------------------|
E| 5------------------------------|----10--------------------------|
http://classicalguitartablature.blogspot.com/
E|--------10101010----------------|------------------10------------|
B|------ 8-- 8 8 8-- 8-- 8----10--|------------10--------10----12--|
G|---- 7---- 7 7 7------ 7----11--|--------11----------------------|
D|---------------------- 9----12--|----12----------12--------------|
A|10---------------------- 7------|--------------------------------|
E|--------------------------------|10------------------------------|
http://classicalguitartablature.blogspot.com/
E|-------------- 8---- 7 7---- 7--|-- 5----------------------------|
B|------------ 5 5---- 5-- 5-- 8--|-- 5---------- 5----------------|
G|-------- 5------ 5-- 5-- 5-- 7--|-- 5------ 5------------ 5------|
D|---- 5--------------------------|-------- 5---------- 5------ 5--|
A|---------------------------- 7--|-- 5-------------------------- 5|
E| 5------------------------------|--------------------------------|
http://classicalguitartablature.blogspot.com/
E|--------------------------------| 0------------------------------|
B|--------------------------------| 0------------------------------|
G|-------- 5----------------------| 0------------------------------|
D|---- 5------ 5------------------|--------------------------------|
A|------------------------ 7--10--|--------------------------------|
E|---------------- 7--10----------| 0------------------------------|
http://classicalguitartablature.blogspot.com/
0 com

Fields Of Gold (BASIC)

Sting's classic fingerstyle chord melody guitar BASIC arrangement played in the key of Em.
You need to install the Flash plugin - http://www.webestools.com/

Fields Of Gold - BASIC ARRANGEMENT played in the key of Em
http://classicalguitartablature.blogspot.com/
E|--------------------------------|---------------------- 3---- 2--|
B|---------- 3-------------- 3----|------------ 3------------------|
G|------ 0-------------- 0--------|------ 0------------------------|
D|-- 4-------------- 4------------|---- 4------------ 4------------|
A|--------------------------------|--------------------------------|
E| 0------------ 0----------------| 0-------------- 0--------------|
http://classicalguitartablature.blogspot.com/
E| 0-------------------- 3-- 2----| 0---------- 0------------------|
B| 0---- 3---- 3------------------| 1---- 3-------------------- 1--|
G|--------------------------------|---------------------- 0--------|
D|-- 0-------------- 0------------|-- 2-------------- 2------------|
A|--------------------------------| 3------------ 3----------------|
E| 0-------------- 0--------------|--------------------------------|
http://classicalguitartablature.blogspot.com/
E| 0------------------------------|------------------------ 3-- 2--|
B| 1------ 3-- 3-------------- 0--|---- 3-------- 0-------- 0-- 0--|
G|-------- 0-- 0------ 0----------|---- 0------ 0------ 2----------|
D|---- 2------------------ 2------|-------- 0----------------------|
A| 3-------------- 3--------------|--------------------------------|
E|--------------------------------| 3-------------- 2--------------|
http://classicalguitartablature.blogspot.com/
E| 0-------------------- 3-- 2----| 0------------------------------|
B| 0------ 3-- 3------------------| 1---- 3---- 3-------------- 0--|
G|--------------------------------|---------------------- 0--------|
D|---- 0-------------- 0----------|---- 2------------ 0------------|
A|--------------------------------| 3-------------- 2--------------|
E| 0-------------- 0--------------|--------------------------------|
http://classicalguitartablature.blogspot.com/
E|--------------------------------|------------------------ 3-- 2--|
B| 1---- 0---- 0------------------|------------ 0------------------|
G| 2---------------- 2------ 0----|-------- 0---------- 2----------|
D|-- 2------------------ 0--------|---- 0--------------------------|
A| 0------------------------------|--------------------------------|
E|-------------- 2----------------| 3-------------- 2--------------|
http://classicalguitartablature.blogspot.com/
E| 0-------------------- 3-- 2----| 0---------- 0------------------|
B| 0---- 3---- 3------------------| 1---- 3-------------------- 1--|
G|--------------------------------|---------------------- 0--------|
D|-- 0-------------- 0------------|-- 2-------------- 2------------|
A|--------------------------------| 3------------ 3----------------|
E| 0-------------- 0--------------|--------------------------------|
http://classicalguitartablature.blogspot.com/
E| 0------------------------------|------------------------ 3-- 2--|
B| 1------ 3-- 3-------------- 0--|---- 3-------- 0-------- 0-- 0--|
G|-------- 0-- 0------ 0----------|---- 0------ 0------ 2----------|
D|---- 2------------------ 2------|-------- 0----------------------|
A| 3-------------- 3--------------|--------------------------------|
E|--------------------------------| 3-------------- 2--------------|
http://classicalguitartablature.blogspot.com/
E| 0-------------------- 3-- 2----| 0------------------------------|
B| 0------ 3-- 3------------------| 1---- 3---- 3-------------- 0--|
G|--------------------------------|---------------------- 0--------|
D|---- 0-------------- 0----------|---- 2------------ 0------------|
A|--------------------------------| 3-------------- 2--------------|
E| 0-------------- 0--------------|--------------------------------|
http://classicalguitartablature.blogspot.com/
E|--------------------------------|--------------------------------|
B| 1---- 0---- 0------------------|--------------------------------|
G| 2---------------- 2------ 0----|------ 0------------------------|
D|-- 2------------------ 0--------|-- 0-------- 0------ 0------ 0--|
A| 0------------------------------|------------------------ 2------|
E|-------------- 2-------------- 3|---------------- 3--------------|
http://classicalguitartablature.blogspot.com/
E|------------------------------ 0|--------------------------------|
B|------------ 3-- 3-- 3-- 3-- 3 0|------ 3---- 3---- 0------------|
G|-------- 0------ 0-- 0-- 0-- 0--|------ 0---- 0------ 2 0--------|
D|---- 2---------- 2--------------|-- 0-- 0---- 0------------------|
A| 3-------------- 3--------------|-------------------------- 2----|
E|--------------------------------| 3-------------- 3--------------|
http://classicalguitartablature.blogspot.com/
E|--------------------------------| 0------------------------------|
B|---------- 3-- 3---- 3-- 3-- 3--| 0---- 3---- 3---- 0------------|
G|------ 0------ 0---- 0-- 0-- 0--| 0---- 0---- 0------ 2 0--------|
D|-- 2------------ 2-- 2-- 2-- 2--|---- 0 0---- 0------------------|
A| 3-------------- 3--------------|---------------------------- 2--|
E|--------------------------------| 3-------------- 3--------------|
http://classicalguitartablature.blogspot.com/
E|--------------------------------| 0------------------------------|
B|------------ 3 3---- 3-- 3-- 3--| 0---- 3---- 3-------------- 0--|
G|-------- 0------ 0-- 0-- 0-- 0--| 0---- 0---- 0---------- 2------|
D|---- 2---------- 2-- 2-- 2-- 2--|-- 0-- 0---- 0------ 0----------|
A| 3-------------- 3--------------| 2-------------- 2--------------|
E|--------------------------------|--------------------------------|
http://classicalguitartablature.blogspot.com/
E|--------------------------------|--------------------------------|
B| 1---- 0---- 0------------------|------------ 0------------ 0----|
G| 2------ 2-- 2---- 2-------- 0--|-------- 0-------------- 2------|
D|---- 2------------------ 0------|---- 0-------------- 0----------|
A| 0------------------------------|-------------- 2----------------|
E|---------------- 2--------------| 3------------------------------|
http://classicalguitartablature.blogspot.com/
E|--------------------------------|--------------------------------|
B| 1---- 0---- 0------------------|------------ 0------------ 0----|
G| 2------ 2-- 2---- 2-------- 0--|-------- 0-------------- 2------|
D|---- 2------------------ 0------|---- 0-------------- 0----------|
A| 0------------------------------|-------------- 2----------------|
E|---------------- 2--------------| 3------------------------------|
http://classicalguitartablature.blogspot.com/
E|--------------------------------|--------------------------------|
B| 1---------- 1-- 0--------------|--------------------------------|
G| 0---- 0-------- 0------ 0------| 2------ 2------ 0------ 0-- 0--|
D|---- 2-------------- 0------ 0--|---- 2------ 2------ 4----------|
A| 0-------------- 2--------------| 3-------------- 5--------------|
E|--------------------------------|--------------------------------|
http://classicalguitartablature.blogspot.com/
E|--------------------------------|--------------------------------|
B|---------- 1-------------- 1----|-------- 0-- 1-------------- 1--|
G|-------- 0-- 0-------- 0--------|-------- 0-- 0---------- 0------|
D|---- 0------------ 2------------|-- 0---------------- 2----------|
A|--------------------------------|--------------------------------|
E| 3-------------- 3--------------| 3-------------- 3------------ 3|
http://classicalguitartablature.blogspot.com/
E|--------------------------------|--------------------------------|
B|-------- 0-- 1---------------- 1|--------------------------------|
G|-------- 0-- 0---------- 0------|--------------------------------|
D|---- 0---- 2-------- 2----------|------------------------------ 0|
A|--------------------------------|--------------------------------|
E|---------------- 3--------------|------------------------------ 3|
http://classicalguitartablature.blogspot.com/
E|--------------------------------|--------------------------------|
B| 0------------------------------|--------------------------------|
G| 0------------------------------|--------------------------------|
D|--------------------------------|--------------------------------|
A|--------------------------------|--------------------------------|
E|--------------------------------|--------------------------------|
http://classicalguitartablature.blogspot.com/
0 com

Bizarre Love Triangle (BASIC)

Frente's classic tune fingerstyle chord melody guitar BASIC arrangement played in the key of C.
You need to install the Flash plugin - http://www.webestools.com/

Bizarre Love Triangle - BASIC ARRANGEMENT played in the key of C
http://classicalguitartablature.blogspot.com/
E|-------- 0 0---- 0-- 0----------| 3---- 1---- 0------------------|
B|-------- 1 1---- 1-- 1----------| 0---- 0---- 0------ 3----------|
G|---------------------------- 2--| 0-------------------------- 0--|
D|---- 3------------------ 3------|-- 0------------ 0------ 0------|
A|--------------------------------|--------------------------------|
E| 1------------------------------| 3------------------------------|
http://classicalguitartablature.blogspot.com/
E|------------------ 0------------|--------------------------------|
B| 3---- 3---- 3-- 3------------ 1|---- 0-------------- 1-- 1------|
G| 0---- 0---- 0-- 0---------- 0 2|---- 2------ 2------ 2-- 2-- 2--|
D|---- 0---------------- 0--------| 2 3---- 3------ 3--------------|
A|--------------------------------|--------------------------------|
E| 0------------------------------| 1------------------------------|
http://classicalguitartablature.blogspot.com/
E|--------------------------------|---------------- 0--------------|
B| 1-- 1------ 1---- 1---- 1-- 1 1|---- 3------ 1------------ 1----|
G| 2------ 2-------- 2---- 2-- 2 0|------ 0---- 0---------- 0------|
D| 3------------ 3------------ 3--| 0---- 0---- 0------ 0----------|
A|--------------------------------|--------------------------------|
E| 1------------------------------| 3------------------------------|
http://classicalguitartablature.blogspot.com/
E|--------------------------------|--------------------------------|
B| 0 0-- 0-- 0------ 0---------- 1|---- 0--------------------------|
G| 0---- 0-- 0------ 0------ 0-- 2|------------ 2-------- 2--------|
D| 0---- 0-- 0---------- 0------ 3|-------------------- 3------ 3--|
A|--------------------------------|--------------------------------|
E| 0---------------------------- 1|--------------------------------|
http://classicalguitartablature.blogspot.com/
E|---- 0------ 0-- 0-- 0---- 0----| 3---- 1---- 0------------------|
B|---- 1------ 1-- 1-- 1---- 1----| 0---- 0---- 0------ 3----------|
G|---- 2------ 2-- 2-- 2---- 2----| 0-------------------------- 0--|
D|--------------------------------|-- 0------------ 0------ 0------|
A|--------------------------------|--------------------------------|
E| 1------------------------------| 3------------------------------|
http://classicalguitartablature.blogspot.com/
E|------------------ 0------------|--------------------------------|
B| 3---- 3---- 3-- 3------------ 1|---- 0-------------- 1-- 1------|
G| 0---- 0---- 0-- 0---------- 0 2|---- 2------ 2------ 2-- 2-- 2--|
D|---- 0---------------- 0--------| 2 3---- 3------ 3--------------|
A|--------------------------------|--------------------------------|
E| 0------------------------------| 1------------------------------|
http://classicalguitartablature.blogspot.com/
E|--------------------------------|---------------- 0--------------|
B| 1-- 1------ 1---- 1---- 1-- 1 1|---- 3------ 1------------ 1----|
G| 2------ 2-------- 2---- 2-- 2 0|------ 0---- 0---------- 0------|
D| 3------------ 3------------ 3--| 0---- 0---- 0------ 0----------|
A|--------------------------------|--------------------------------|
E| 1------------------------------| 3------------------------------|
http://classicalguitartablature.blogspot.com/
E|--------------------------------|--------------------------------|
B| 0 0-- 0-- 0------ 0---------- 1|---- 0--------------------------|
G| 0---- 0-- 0------ 0------ 0-- 2|------------ 2-------- 2--------|
D| 0---- 0-- 0---------- 0------ 3|-------------------- 3------ 3--|
A|--------------------------------|--------------------------------|
E| 0---------------------------- 1|--------------------------------|
http://classicalguitartablature.blogspot.com/
E|---------------------------- 0--|--------------------------------|
B|------ 0------ 1------ 3---- 0--|---- 3------ 1---- 0------------|
G| 2---- 2------ 2------ 2---- 0--|---- 0------ 0-------------- 0--|
D|---- 3------ 3------ 3---- 0----|-------- 0------ 0------ 0------|
A|--------------------------------|--------------------------------|
E| 1------------------------------| 3------------------------------|
http://classicalguitartablature.blogspot.com/
E|------ 3-- 1-- 0----------------|--------------------------------|
B|-------- 0 0-- 0---- 3----------| 1-- 3--------------------------|
G|-------------------- 0------ 0--| 2-- 2------ 2---------- 2------|
D|---- 0------------------ 0------| 3------------------ 3------ 3--|
A|--------------------------------|--------------------------------|
E| 0------------------------------| 1------------------------------|
http://classicalguitartablature.blogspot.com/
E|---------------------------- 0--|--------------------------------|
B|------ 0------ 1------ 3---- 0--|---- 3------ 1---- 0------------|
G| 2---- 2------ 2------ 2---- 0--|---- 0------ 0-------------- 0--|
D|---- 3------ 3------ 3---- 0----|-------- 0------ 0------ 0------|
A|--------------------------------|--------------------------------|
E| 1------------------------------| 3------------------------------|
http://classicalguitartablature.blogspot.com/
E|------ 3-- 1-- 0----------------|--------------------------------|
B|-------- 0 0-- 0---- 3----------| 1-- 3--------------------------|
G|-------------------- 0------ 0--| 2-- 2------ 2---------- 2------|
D|---- 0------------------ 0------| 3------------------ 3------ 3--|
A|--------------------------------|--------------------------------|
E| 0------------------------------| 1------------------------------|
http://classicalguitartablature.blogspot.com/
E|---------------- 0--------------|-------- 0-- 0-- 0-- 0----------|
B|---------- 1-------- 1----------|-------- 1-- 1-- 1-- 1----------|
G|---- 0-------------------- 0----|---------------------------- 2--|
D|--------------------------------|---- 3------------------ 3------|
A| 3------------------------------|--------------------------------|
E|--------------------------------| 1------------------------------|
http://classicalguitartablature.blogspot.com/
E| 3---- 1---- 0------------------|------------------ 0------------|
B| 0---- 0---- 0------ 3----------| 3---- 3---- 3-- 3------------ 1|
G| 0-------------------------- 0--| 0---- 0---- 0-- 0---------- 0 2|
D|-- 0------------ 0------ 0------|---- 0---------------- 0--------|
A|--------------------------------|--------------------------------|
E| 3------------------------------| 0------------------------------|
http://classicalguitartablature.blogspot.com/
E|--------------------------------|--------------------------------|
B|---- 0-------------- 1-- 1------| 1-- 1------ 1---- 1---- 1-- 1 1|
G|---- 2------ 2------ 2-- 2-- 2--| 2------ 2-------- 2---- 2-- 2 0|
D| 2 3---- 3------ 3--------------| 3------------ 3------------ 3--|
A|--------------------------------|--------------------------------|
E| 1------------------------------| 1------------------------------|
http://classicalguitartablature.blogspot.com/
E|---------------- 0--------------|--------------------------------|
B|---- 3------ 1------------ 1----| 0 0-- 0-- 0------ 0---------- 1|
G|------ 0---- 0---------- 0------| 0---- 0-- 0------ 0------ 0-- 2|
D| 0---- 0---- 0------ 0----------| 0---- 0-- 0---------- 0------ 3|
A|--------------------------------|--------------------------------|
E| 3------------------------------| 0---------------------------- 1|
http://classicalguitartablature.blogspot.com/
E|--------------------------------|---------------------------- 0--|
B|---- 0--------------------------|------ 0------ 1------ 3---- 0--|
G|------------ 2-------- 2--------| 2---- 2------ 2------ 2---- 0--|
D|-------------------- 3------ 3--|---- 3------ 3------ 3---- 0----|
A|--------------------------------|--------------------------------|
E|--------------------------------| 1------------------------------|
http://classicalguitartablature.blogspot.com/
E|--------------------------------|------ 3-- 1-- 0----------------|
B|---- 3------ 1---- 0------------|-------- 0 0-- 0---- 3----------|
G|---- 0------ 0-------------- 0--|-------------------- 0------ 0--|
D|-------- 0------ 0------ 0------|---- 0------------------ 0------|
A|--------------------------------|--------------------------------|
E| 3------------------------------| 0------------------------------|
http://classicalguitartablature.blogspot.com/
E|--------------------------------|---------------------------- 0--|
B| 1-- 3--------------------------|------ 0------ 1------ 3---- 0--|
G| 2-- 2------ 2---------- 2------| 2---- 2------ 2------ 2---- 0--|
D| 3------------------ 3------ 3--|---- 3------ 3------ 3---- 0----|
A|--------------------------------|--------------------------------|
E| 1------------------------------| 1------------------------------|
http://classicalguitartablature.blogspot.com/
E|--------------------------------|------ 3-- 1-- 0----------------|
B|---- 3------ 1---- 0------------|-------- 0 0-- 0---- 3----------|
G|---- 0------ 0-------------- 0--|-------------------- 0------ 0--|
D|-------- 0------ 0------ 0------|---- 0------------------ 0------|
A|--------------------------------|--------------------------------|
E| 3------------------------------| 0------------------------------|
http://classicalguitartablature.blogspot.com/
E|--------------------------------|---------------------------- 0--|
B| 1-- 3--------------------------|------ 0------ 1------ 3---- 0--|
G| 2-- 2------ 2---------- 2------| 2---- 2------ 2------ 2---- 0--|
D| 3------------------ 3------ 3--|---- 3------ 3------ 3---- 0----|
A|--------------------------------|--------------------------------|
E| 1------------------------------| 1------------------------------|
http://classicalguitartablature.blogspot.com/
E|--------------------------------|------ 3-- 1-- 0----------------|
B|---- 3------ 1---- 0------------|-------- 0 0-- 0---- 3----------|
G|---- 0------ 0-------------- 0--|-------------------- 0------ 0--|
D|-------- 0------ 0------ 0------|---- 0------------------ 0------|
A|--------------------------------|--------------------------------|
E| 3------------------------------| 0------------------------------|
http://classicalguitartablature.blogspot.com/
E|--------------------------------|---------------------------- 0--|
B| 1-- 3--------------------------|------ 0------ 1------ 3---- 0--|
G| 2-- 2------ 2---------- 2------| 2---- 2------ 2------ 2---- 0--|
D| 3------------------ 3------ 3--|---- 3------ 3------ 3---- 0----|
A|--------------------------------|--------------------------------|
E| 1------------------------------| 1------------------------------|
http://classicalguitartablature.blogspot.com/
E|--------------------------------|------ 3-- 1-- 0----------------|
B|---- 3------ 1---- 0------------|-------- 0 0-- 0---- 3----------|
G|---- 0------ 0-------------- 0--|-------------------- 0------ 0--|
D|-------- 0------ 0------ 0------|---- 0------------------ 0------|
A|--------------------------------|--------------------------------|
E| 3------------------------------| 0------------------------------|
http://classicalguitartablature.blogspot.com/
E|--------------------------------|---------------- 0--------------|
B| 1-- 3--------------------------|---------- 1-------- 1----------|
G| 2-- 2------ 2---------- 2------|---- 0-------------------- 0----|
D| 3------------------ 3------ 3--|--------------------------------|
A|--------------------------------| 3------------------------------|
E| 1------------------------------|--------------------------------|
http://classicalguitartablature.blogspot.com/
E|--------------------------------|--------------------------------|
B|---- 1--------------------------|--------------------------------|
G|---- 0--------------------------|--------------------------------|
D|-- 2----------------------------|--------------------------------|
A| 3------------------------------|--------------------------------|
E|--------------------------------|--------------------------------|
http://classicalguitartablature.blogspot.com/