To celebrate the anniversary, I am giving you (finally...) : iPhone LickByNeck !!!!!!

Ain't No Sunshine

Bill Withers' classic tune fingerstyle chord melody guitar arrangement played in the key of Am.

Ain't No Sunshine played in the key of Am.
http://classicalguitartablature.blogspot.com/
E|--------------------------------|--------------------------------|
B|---- 5---- 5------ 5------ 5-- 5|---- 5---- 5-------- 5------ 5--|
G|---- 5---- 5-------- 5---- 5-- 5|---- 5---- 5-------- 5------ 5--|
D| 5-- 5---- 5------ 5------ 5-- 5|---- 5------ 5------ 5------ 5--|
A|--------------------------------|--------------------------------|
E| 5---------- 5 0------ 3------ 5|------------ 5-- 0------ 3---- 5|
http://classicalguitartablature.blogspot.com/
E|--------------------------------|---------- 3-- 5 8---- 7------ 5|
B|-- 5---------------- 5----------| 5------ 5---------------- 8----|
G|---- 5---- 5-------- 5----------| 5------------------------------|
D|---- 5---- 5-------- 5----------| 5------------------------------|
A|--------------------------------|--------------------------------|
E|------------ 5-- 0---- 3-- 0----| 5------------------------------|
http://classicalguitartablature.blogspot.com/
E|--------------------------------|------------ 5---- 8-- 7-- 3-- 5|
B| 5---- 5---- 5------ 5------ 5--|------ 5 8 5------ 5------ 5----|
G| 5---- 5---- 5------ 5------ 5--|---- 5---- 5------ 5------ 5----|
D|------ 5---- 5------ 5------ 5--|---- 5---- 5--------------------|
A|--------------------------------|------------ 0------------------|
E| 5---------- 5-- 0------ 3---- 5|-------------- 0-------- 3------|
http://classicalguitartablature.blogspot.com/
E|--------------------------------|------ 5 5--------12--10----12--|
B| 5---- 5---- 5------ 5------ 5--|---- 5--------13--13--------10--|
G| 5---- 5---- 5------ 5------ 5--|---- 5--------14--14-------- 9--|
D|------ 5---- 5------ 5------ 5--|---- 5--------------------------|
A|--------------------------------|------------ 0--------10--------|
E| 5---------- 5-- 0------ 3------| 5-------------- 0--------------|
http://classicalguitartablature.blogspot.com/
E|10----------10 8---- 5------ 5--|----------10---------- 5 3-- 5--|
B| 0---- 0---- 0 0---- 0-- 8------|10------13----13----------------|
G| 0---- 0---- 0 0---- 0-- 6------|10--10------10------10----------|
D|------ 0------------------------|10--10------10------10----------|
A|------------------------ 6------|--------------------------------|
E| 0---------- 0------------------|10----------10---------- 3 4----|
http://classicalguitartablature.blogspot.com/
E| 5------------------------------| 5-------- 3-- 5 8---- 7------ 5|
B| 5---- 5---- 5------ 5------ 5--| 5------ 5---------------- 8----|
G| 5---- 5---- 5------ 5------ 5--| 5------------------------------|
D|------ 5---- 5------ 5------ 5--|--------------------------------|
A|--------------------------------|--------------------------------|
E| 5---------- 5-- 0------ 3------| 5------------------------------|
http://classicalguitartablature.blogspot.com/
E|--------------------------------|------------ 5---- 8-- 7-- 3-- 5|
B| 5---- 5---- 5------ 5------ 5--|------ 5 8 5------ 5------ 5----|
G| 5---- 5---- 5------ 5------ 5--|---- 5---- 5------ 5------ 5----|
D|------ 5---- 5------ 5------ 5--|---- 5---- 5--------------------|
A|--------------------------------|------------ 0------------------|
E| 5---------- 5-- 0------ 3---- 5|-------------- 0-------- 3------|
http://classicalguitartablature.blogspot.com/
E|--------------------------------|------ 5 5--------12--10----12--|
B| 5---- 5---- 5------ 5------ 5--|---- 5--------13--13--------10--|
G| 5---- 5---- 5------ 5------ 5--|---- 5--------14--14-------- 9--|
D|------ 5---- 5------ 5------ 5--|---- 5--------------------------|
A|--------------------------------|------------ 0--------10--------|
E| 5---------- 5-- 0------ 3------| 5-------------- 0--------------|
http://classicalguitartablature.blogspot.com/
E|10----------10 8---- 5------ 5--|----------10---------- 5 3-- 5--|
B| 0---- 0---- 0 0---- 0-- 8------|10------13----13----------------|
G| 0---- 0---- 0 0---- 0-- 6------|10--10------10------10----------|
D|------ 0------------------------|10--10------10------10----------|
A|------------------------ 6------|--------------------------------|
E| 0---------- 0------------------|10----------10---------- 3 4----|
http://classicalguitartablature.blogspot.com/
E| 5------------------------------| 5------------------------------|
B| 5---- 5---- 5------ 5------ 5--| 5------------------------------|
G| 5---- 5---- 5------ 5------ 5--| 5------------------------------|
D|------ 5---- 5------ 5------ 5--|------ 5-- 7 5 7---- 5 7-- 5 7--|
A|--------------------------------|--------------------------------|
E| 5---------- 5-- 0------ 3------| 5------------------------------|
http://classicalguitartablature.blogspot.com/
E|--------------------------------|--------------------------------|
B|--------------------------------|--------------------------------|
G|--------------------------------|--------------------------------|
D| 5 7-- 5 7-- 5 7-- 5 7-- 5 7-- 5| 7-- 5 7-- 5 7-- 5 7-- 5 7-- 5 7|
A|--------------------------------|---- 5 7-- 5 7-- 5 7-- 5 7-- 5 7|
E|--------------------------------|--------------------------------|
http://classicalguitartablature.blogspot.com/
E|--------------------------------|--------------------------------|
B|--------------------------------|--------------------------------|
G|-- 0 2-- 0 2-- 0 2-- 0 2-- 0 2 0|-- 2 0-- 2-- 0 2-- 0 2-- 0 2 0--|
D|------------------------------ 2|------------ 0---- 0 0-- 0 0----|
A|-- 0---- 0----------------------|--------------------------------|
E|-------------- 3---- 3---- 3-- 2|------------ 1------------------|
http://classicalguitartablature.blogspot.com/
E|--------1212--15--12----10-- 810|-- 8------10---------- 5 3-- 5--|
B|--------------------------------|--------13----13----------------|
G| 2------------------------------|------------10------10----------|
D| 0------------------------------|------------10------10----------|
A|--------------------------------|--------------------------------|
E| 0------------------------------|------------10---------- 3 4----|
http://classicalguitartablature.blogspot.com/
E| 5------------------------------| 5-------- 3-- 5 8---- 7------ 5|
B| 5---- 5---- 5------ 5------ 5--| 5------ 5---------------- 8----|
G| 5---- 5---- 5------ 5------ 5--| 5------------------------------|
D|------ 5---- 5------ 5------ 5--|--------------------------------|
A|--------------------------------|--------------------------------|
E| 5---------- 5-- 0------ 3------| 5------------------------------|
http://classicalguitartablature.blogspot.com/
E|--------------------------------|------------ 5---- 8-- 7-- 3-- 5|
B| 5---- 5---- 5------ 5------ 5--|------ 5 8 5------ 5------ 5----|
G| 5---- 5---- 5------ 5------ 5--|---- 5---- 5------ 5------ 5----|
D|------ 5---- 5------ 5------ 5--|---- 5---- 5--------------------|
A|--------------------------------|------------ 0------------------|
E| 5---------- 5-- 0------ 3---- 5|-------------- 0-------- 3------|
http://classicalguitartablature.blogspot.com/
E|--------------------------------|------ 5 5--------12--10----12--|
B| 5---- 5---- 5------ 5------ 5--|---- 5--------13--13--------10--|
G| 5---- 5---- 5------ 5------ 5--|---- 5--------14--14-------- 9--|
D|------ 5---- 5------ 5------ 5--|---- 5--------------------------|
A|--------------------------------|------------ 0--------10--------|
E| 5---------- 5-- 0------ 3------| 5-------------- 0--------------|
http://classicalguitartablature.blogspot.com/
E|10----------10 8---- 5------ 5--|----------10---------- 5 3-- 5--|
B| 0---- 0---- 0 0---- 0-- 8------|10------13----13----------------|
G| 0---- 0---- 0 0---- 0-- 6------|10--10------10------10----------|
D|------ 0------------------------|10--10------10------10----------|
A|------------------------ 6------|--------------------------------|
E| 0---------- 0------------------|10----------10---------- 3 4----|
http://classicalguitartablature.blogspot.com/
E| 5------------------------------|------ 810-- 8-------- 5 3-- 5--|
B| 5---- 5---- 5------ 5------ 5--|----10------ 5------------------|
G| 5---- 5---- 5------ 5------ 5--|---- 9------ 5------ 5----------|
D|------ 5---- 5------ 5------ 5--|-------------------- 5----------|
A|--------------------------------| 0---------- 0------------------|
E| 5---------- 5-- 0------ 3------|---------------- 0------ 3 4----|
http://classicalguitartablature.blogspot.com/
E| 5------------------------------|------ 810-- 8-------- 5 3-- 5--|
B| 5---- 5---- 5------ 5------ 5--|----10------ 5------------------|
G| 5---- 5---- 5------ 5------ 5--|---- 9------ 5------ 5----------|
D|------ 5---- 5------ 5------ 5--|-------------------- 5----------|
A|--------------------------------| 0---------- 0------------------|
E| 5---------- 5-- 0------ 3------|---------------- 0------ 3 4----|
http://classicalguitartablature.blogspot.com/
E| 5-------------- 3-------- 7----|------------ 5------------------|
B| 5---- 5---- 5-- 3-------- 3----|------------ 5------------------|
G| 5---- 5---- 5-- 4-- 4-- 4------|------------ 5------------------|
D|------ 5---- 5------------------|--------------------------------|
A|--------------------------------|---------- 0--------------------|
E| 5---------- 5-- 0------ 3------|--------------------------------|
http://classicalguitartablature.blogspot.com/
E|------------------------ 7------|--------------------------------|
B|-------------- 5-- 9------------|--------------------------------|
G|---------- 5--------------------|--------------------------------|
D|--------------------------------|--------------------------------|
A|--------------------------------|--------------------------------|
E|--------------------------------|--------------------------------|
http://classicalguitartablature.blogspot.com/

0 ความคิดเห็น:

แสดงความคิดเห็น