To celebrate the anniversary, I am giving you (finally...) : iPhone LickByNeck !!!!!!

Bad Day (BASIC)

Daniel Powter's classic fingerstyle chord melody guitar BASIC arrangement played in the key of E.
You need to install the Flash plugin - http://www.webestools.com/

Bad Day - BASIC ARRANGEMENT played in the key of E
http://classicalguitartablature.blogspot.com/
E| 7---- 7---- 7---- 7-- 7------ 7|-------- 7---- 7-- 7------------|
B| 5---- 5---- 5---- 5-- 5------ 7|-------- 7---- 7-- 7 9-- 9--10--|
G| 4---- 4---- 4---- 4-- 4------ 8|-------- 8---- 8-- 8 8-- 8-- 8--|
D|--------------------------------|-------------------- 7-- 7-- 7--|
A|-------------- 0---- 0------ 0--|--------------------------------|
E| 0------------------------------| 7-------------- 7------ 7------|
http://classicalguitartablature.blogspot.com/
E| 7------ 7-- 7---- 7-- 7------ 7|-------- 7---- 7-- 7------------|
B| 5------ 5-- 5---- 5-- 5------ 7|-------- 7---- 7-- 7 9-- 9--10--|
G| 4------ 4-- 4---- 4-- 4------ 8|-------- 8---- 8-- 8 8-- 8-- 8--|
D|--------------------------------|-------------------- 7-- 7-- 7--|
A|-------------- 0-- 0-------- 0--|--------------------------------|
E| 0------------------------------| 7-------------- 7------ 7------|
http://classicalguitartablature.blogspot.com/
E|------------ 0 0-- 0---- 0-- 0--|--------------------------------|
B|------ 0 0 2 0 2---- 2 2 2 2 2 5|-- 4------ 4---------- 4--------|
G|------ 1 1 1 1 2---- 2 2 2 2 2--|-- 2---- 2---- 2---- 2----------|
D|------ 2 2 2---------- 2-- 2----|------ 4-- 4------ 4------------|
A|---------------- 0--------------| 2-------------- 2--------------|
E| 0------------------------------|---------------------------- 2--|
http://classicalguitartablature.blogspot.com/
E|---------- 0-- 0-- 0---- 0-- 0--|--------------------------------|
B|------ 0-- 2-- 2-- 2-- 2 2 2 2 5|-- 4------ 4---------- 4------ 4|
G|------ 1-- 1-- 2---- 2 2 2 2 2--|-- 2---- 2---- 2---- 2------ 2--|
D|------ 2-- 2---------- 2-- 2----|------ 4---- 4---- 4------ 4----|
A|---------------- 0--------------| 2-------------- 2------ 3---- 4|
E| 0------------------------------|--------------------------------|
http://classicalguitartablature.blogspot.com/
E|------------------------ 4------|--------------------------------|
B|-------- 5 4-- 5 4-- 4-- 4 4-- 2|------ 2-- 0 2-- 0--------------|
G|------ 4 4 4-- 4 4-- 4-- 4 4-- 2|---- 2---------- 1-- 1---- 1----|
D|-- 6---- 6 6-- 6 4-- 4---- 4-- 2|-- 2---------- 2-------- 2 4 2 4|
A|--------------------------------| 0------------------------------|
E|---------------- 7--------------|-------------- 4----------------|
http://classicalguitartablature.blogspot.com/
E|------------------------------ 2|---------------------- 4-- 7----|
B|------ 2-------------- 2-- 5-- 2|------ 2---- 2-- 2-------- 7-- 5|
G|-- 2---------- 2-- 4-- 2-- 2-- 2|---- 2---- 2-- 2 2 4-- 4------ 4|
D|-- 4-- 4-- 6--------------------|-- 2---- 2------ 2------------ 6|
A|--------------------------------| 2-------------- 2--------------|
E| 2-------------- 2------ 2------|--------------------------------|
http://classicalguitartablature.blogspot.com/
E|------ 4-- 7---------- 4-- 7----|-------- 4 5 4------------ 7----|
B|------ 5-- 5 7 5-- 5------ 7 5--|---- 5 2 2 2 2 7-------- 9-- 7 5|
G|---- 4-------- 6-- 6---------- 2|---- 2 2 2 2 2 8---- 8-------- 4|
D|-- 6-------------------------- 2|-- 2 2 2---------- 9-- 9------ 6|
A|---------------- 0--------------|--------------------------------|
E| 0---------------------------- 2|---------------- 7--------------|
http://classicalguitartablature.blogspot.com/
E|------ 4-- 7---------- 4-- 7----|-------- 4 5 4------------ 7----|
B|------ 5-- 5 7 5-- 5------ 7 5--|---- 5 2 2 2 2 7-------- 9-- 7 5|
G|---- 4-------- 6-- 6---------- 2|---- 2 2 2 2 2 8---- 8-------- 4|
D|-- 6-------------------------- 2|-- 2 2 2---------- 9-- 9--------|
A|---------------- 0--------------|--------------------------------|
E| 0---------------------------- 2|---------------- 7--------------|
http://classicalguitartablature.blogspot.com/
E|-------- 4 7-------------- 7----|------------------------ 4 7----|
B|------ 5---- 7-------- 9-- 7-- 5|---- 5 2 5 5 5 5---- 5------ 7 5|
G|---- 4-------- 9-- 9---------- 2|---- 2 2 2 2 2 4------ 4------ 2|
D|-- 6-------------- 9-- 9------ 2|-- 2------ 2 2---- 6---------- 2|
A| 4------------------------------| 0------------------------------|
E|---------------- 7--------------|---------------- 4--------------|
http://classicalguitartablature.blogspot.com/
E|--------------------------------|-------------- 9---------- 9-- 3|
B|-------- 5---- 5-- 5-- 5------12|------12------ 9-- 9--12------ 3|
G|-------- 2---- 2-- 2-- 2------ 9|-------- 9---- 9-- 9-- 9------ 0|
D|-- 2---- 2---- 2-- 2-- 2------11|------11----------11--11--------|
A|------------------------------ 9|-------------- 9-------- 9------|
E| 2------------ 2-- 2-------- 2--|--------------------------------|
http://classicalguitartablature.blogspot.com/
E|---- 3-- 3 3-- 3-- 3-- 3-- 3----|-------------- 7----------------|
B|---- 3-- 3 3-- 3-- 3-- 3-- 3-- 8|-- 8-- 8--10-- 5----------------|
G|---- 0-- 0 0-- 0-- 0-- 0-- 0-- 9|-- 9-- 9-- 9-- 5-- 5------------|
D|------------------------------10|--10--10--10------ 5-------- 0--|
A|---------------- 2--------------|--------------------------------|
E| 3---------------------------- 8|-------------- 0-------- 2------|
http://classicalguitartablature.blogspot.com/
E| 3-- 3-- 3-- 3 3-- 3-- 3 3 3----|------10-- 7-------------- 5-- 2|
B| 3-- 3-- 3-- 3 3-- 3-- 3 3 3-- 8|-- 8-- 8------ 8------ 8 8---- 2|
G| 0-- 0-- 0-- 0 0-- 0-- 0 0 0-- 9|-- 9---------- 5---- 5-------- 2|
D|------------------------------10|--10---------- 5-- 5---------- 2|
A|---------------- 2--------------|---------------- 7--------------|
E| 3---------------------------- 8|--------------------------------|
http://classicalguitartablature.blogspot.com/
E|--------------------------------|--------------------------------|
B|--------------------------------|--------------------------------|
G|--------------------------------| 2 2---- 2 2---- 4--------------|
D|--------------------------------| 2 2---- 2 2---- 4--------------|
A| 2-- 2-- 2-- 2-- 2-- 2-- 2-- 2--| 2 2---- 4 4---- 6--------------|
E|--------------------------------|--------------------------------|
http://classicalguitartablature.blogspot.com/
E|------------ 0 0-- 0---- 0-- 0--|--------------------------------|
B|------ 0 0 2 0 2---- 2 2 2 2 2 5|-- 4------ 4---------- 4--------|
G|------ 1 1 1 1 2---- 2 2 2 2 2--|-- 2---- 2---- 2---- 2----------|
D|------ 2 2 2---------- 2-- 2----|------ 4-- 4------ 4------------|
A|---------------- 0--------------| 2-------------- 2--------------|
E| 0------------------------------|---------------------------- 2--|
http://classicalguitartablature.blogspot.com/
E|---------- 0-- 0-- 0---- 0-- 0--|---------------------- 4-- 7----|
B|------ 0-- 2-- 2-- 2-- 2 2 2 2 5|-- 4------ 4-------------- 7-- 5|
G|------ 1-- 1-- 2---- 2 2 2 2 2 2|-- 2---- 2---- 2 2 4-- 4------ 4|
D|------ 2-- 2---------- 2-- 2-- 4|------ 4---- 4-- 4------------ 6|
A|---------------- 0--------------| 2-------------- 2--------------|
E| 0------------------------------|--------------------------------|
http://classicalguitartablature.blogspot.com/
E|------ 4-- 7---------- 4-- 7----|-------- 4 5 4------------ 7----|
B|------ 5-- 5 7 5-- 5------ 7 5--|---- 5 2 2 2 2 7-------- 9-- 7 5|
G|---- 4-------- 6-- 6---------- 2|---- 2 2 2 2 2 8---- 8-------- 4|
D|-- 6-------------------------- 2|-- 2 2 2---------- 9-- 9------ 6|
A|---------------- 0--------------|--------------------------------|
E| 0---------------------------- 2|---------------- 7--------------|
http://classicalguitartablature.blogspot.com/
E|------ 4-- 7---------- 4-- 7----|-------- 4 5 4---------------- 4|
B|------ 5-- 5 7 5-- 5------ 7-- 5|---- 5 2 2 2 2 7-------- 9 7-- 5|
G|---- 4-------- 6-- 6---------- 2|---- 2 2 2 2 2------ 8------ 9 4|
D|-- 6-------------------------- 2|-- 2 2 2---------- 9-- 9--------|
A|---------------- 0--------------|--------------------------------|
E| 0------------------------------| 2-------------- 7--------------|
http://classicalguitartablature.blogspot.com/
E|------ 4------ 4------ 4 4 2-- 4|------ 4 4-- 2---------- 4 7----|
B|------ 5-- 7-- 4---- 4-- 4-- 5 5|---- 5-- 5 5-- 5---- 5-- 5-- 7 5|
G|-- 4-- 4------ 2-- 2---- 2---- 4|-- 4---- 4-------- 6-- 6------ 2|
D|-- 6----------------------------|--------------------------------|
A| 4---- 4-------- 3------ 3------| 2------ 2----------------------|
E|--------------------------------|---------------- 6------ 6------|
http://classicalguitartablature.blogspot.com/
E|---------------------- 4--------|-------- 7-- 7-------- 7--------|
B|------------------------ 2 2-- 5|-------- 5-- 5---- 5-- 5--------|
G|---- 2------ 2------ 2-------- 4|-------- 4-- 4---- 4-- 4--------|
D|-- 2------ 2-- 2-- 2------------|--------------------------------|
A|---------------- 2--------------|-------------- 0------------ 0--|
E| 2------ 2----------------------| 0------------------------------|
http://classicalguitartablature.blogspot.com/
E| 7------ 7---- 7-- 7---- 4------|-------- 7-- 7-------- 7--------|
B| 5------ 5---- 5-- 5-- 2-- 2 2 5|-------- 5-- 5---- 5-- 5--------|
G| 6------ 6---- 6---- 6 2-- 2 2 4|-------- 4-- 4---- 4-- 4--------|
D|-------------------------- 2 2--|--------------------------------|
A|---------------------- 2--------|-------------- 0------------ 0--|
E| 7---------------- 7------------| 0------------------------------|
http://classicalguitartablature.blogspot.com/
E| 7------ 7---- 7-- 7---- 4------|-- 0----------------------------|
B| 5------ 5---- 5-- 5-- 2-- 2 2--|-- 0---- 0----------------------|
G| 6------ 6---- 6---- 6 2-- 2 2--| 1---- 1------------------------|
D|-------------------------- 2 2--|---- 4--------------------------|
A|---------------------- 2--------|--------------------------------|
E| 7---------------- 7------------| 0------------------------------|
http://classicalguitartablature.blogspot.com/

0 ความคิดเห็น:

แสดงความคิดเห็น