To celebrate the anniversary, I am giving you (finally...) : iPhone LickByNeck !!!!!!

Beat It (BASIC)

Michael Jackson's classic tune fingerstyle chord melody guitar BASIC arrangement played in the key of Em.
You need to install the Flash plugin - http://www.webestools.com/

Beat It - BASIC ARRANGEMENT played in the key of Em
http://classicalguitartablature.blogspot.com/
E| 4------------------------------| 4------------------------------|
B| 1------------------------------| 1------------------------------|
G| 1------------------------------| 1------------------------------|
D|--------------------------------|--------------------------------|
A|--------------------------------|--------------------------------|
E| 4------------------------------| 4------------------------------|
http://classicalguitartablature.blogspot.com/
E| 1------------------------------| 1------------------------------|
B| 1------------------------------| 1------------------------------|
G| 1------------------------------| 1------------------------------|
D|--------------------------------|--------------------------------|
A|--------------------------------|--------------------------------|
E| 1------------------------------| 1------------------------------|
http://classicalguitartablature.blogspot.com/
E| 4------------------------------| 4------------------------------|
B| 1------------------------------| 1------------------------------|
G| 1------------------------------| 1------------------------------|
D|--------------------------------|--------------------------------|
A|--------------------------------|--------------------------------|
E| 4------------------------------| 4------------------------------|
http://classicalguitartablature.blogspot.com/
E|-------- 3----------------------|--------------------------------|
B| 4---------------------- 4------|------------------------ 4------|
G| 3------ 3-------------- 3------|-------- 3---------- 3-- 3------|
D| 5------------------ 5-- 5------|---- 5-- 5-------------- 5------|
A| 6------------------ 6----------|---- 6-------------- 6----------|
E|--------------------------------|--------------------------------|
http://classicalguitartablature.blogspot.com/
E|--------------------------------|--------------------------------|
B|--------------------------------|--------------------------------|
G|--------------------------------|--------------------------------|
D|--------------------------------|---------------------------- 2--|
A|--------------------------------|--------------------------------|
E|--------------------------------|--------------------------------|
http://classicalguitartablature.blogspot.com/
E|------------ 3-- 0-------- 2----|-- 0----------------------------|
B|-------- 0---------------- 3----|---- 3 3-------- 3--------------|
G|---- 0-------------- 0------ 2--|------ 2-------- 2--------------|
D|--------------------------------|------ 4-------- 4---------- 2--|
A|---------------------------- 5--|--------------------------------|
E| 0------------------------------|--------------------------------|
http://classicalguitartablature.blogspot.com/
E|---------- 3---- 3-- 0------ 2--|---- 0--------------------------|
B|-------- 0------------------ 3--|---- 3-- 3----------------------|
G|---- 0---------------------- 2--|---- 2---- 2--------------------|
D|--------------------------------|-------- 4------------------ 2--|
A|------------------------------ 5|--------------------------------|
E| 0------------------------------|--------------------------------|
http://classicalguitartablature.blogspot.com/
E|------------ 3-- 0-------- 2----|-- 0----------------------------|
B|-------- 0---------------- 3----|---- 3 3-------- 3--------------|
G|---- 0-------------- 0------ 2--|------ 2-------- 2--------------|
D|--------------------------------|------ 4-------- 4---------- 2--|
A|---------------------------- 5--|--------------------------------|
E| 0------------------------------|--------------------------------|
http://classicalguitartablature.blogspot.com/
E|---------- 3---- 3-- 0------ 2--|---- 0--------------------------|
B|-------- 0------------------ 3--|---- 3-- 3----------------------|
G|---- 0---------------------- 2--|---- 2---- 2--------------------|
D|--------------------------------|-------- 4----------------------|
A|------------------------------ 5|--------------------------------|
E| 0------------------------------|--------------------------------|
http://classicalguitartablature.blogspot.com/
E|-- 7-- 7---- 7-- 5-- 7-- 5-- 710|------------------------------ 7|
B|-- 0-- 0-------- 0---------- 010|----12--10----12------------12--|
G|---- 0 0-------- 0---------- 0--|11--11--11------11--------------|
D|--------------------------------|----12--12------12--------------|
A|--------------------------------|--------------------------------|
E|---- 0-- 0------ 0---------- 0--|----10--10------10--------------|
http://classicalguitartablature.blogspot.com/
E|---- 7-- 7-- 7-- 5-- 7 5---- 3 5|-------- 7---------------- 7----|
B|---- 0-- 0------ 0---------- 0--|---- 8-------------------- 7----|
G|---- 0-- 0------ 0---------- 0--|---- 7---------- 7---------- 7--|
D|--------------------------------|---------------- 7--------------|
A|--------------------------------|---- 5-- 5------ 5---------- 5--|
E|---- 0-- 0------ 0---------- 0--|--------------------------------|
http://classicalguitartablature.blogspot.com/
E| 5 3----------------------------| 2-- 0---------------- 0------ 3|
B|-------- 5-- 3-- 5---- 5---- 5--| 3-- 3-- 3-- 0 3----------------|
G|---------------- 5---------- 5--| 2-- 2-- 2---- 2----------------|
D|---------------- 5---------- 5--|-------- 4---- 4----------------|
A|---- 3-- 3------ 3---------- 3--|---- 5-- 5------ 5-------- 5----|
E|--------------------------------|--------------------------------|
http://classicalguitartablature.blogspot.com/
E|--------------------------------|----------------10--------------|
B|-- 5---------------------- 5----|------10--------10--------------|
G|--------------------------------|11----------11--11--------------|
D|--------------------------------|----12--------------------------|
A|--------------------------------|--------------------------------|
E|---- 0-- 0------ 0---------- 0--|----10--10------10----------10--|
http://classicalguitartablature.blogspot.com/
E|-- 7-- 7---- 7-- 5-- 7-- 5-- 710|------------------------------ 7|
B|-- 0-- 0-------- 0---------- 010|----12--10----12------------12--|
G|---- 0 0-------- 0---------- 0--|11--11--11------11--------------|
D|--------------------------------|----12--12------12--------------|
A|--------------------------------|--------------------------------|
E|---- 0-- 0------ 0---------- 0--|----10--10------10--------------|
http://classicalguitartablature.blogspot.com/
E|---- 7-- 7-- 7-- 5-- 7 5---- 3 5|-------- 7---------------- 7----|
B|---- 0-- 0------ 0---------- 0--|---- 8-------------------- 7----|
G|---- 0-- 0------ 0---------- 0--|---- 7---------- 7---------- 7--|
D|--------------------------------|---------------- 7--------------|
A|--------------------------------|---- 5-- 5------ 5---------- 5--|
E|---- 0-- 0------ 0---------- 0--|--------------------------------|
http://classicalguitartablature.blogspot.com/
E| 5 3----------------------------| 2-- 0---------------- 0------ 3|
B|-------- 5-- 3-- 5---- 5---- 5--| 3-- 3-- 3-- 0 3----------------|
G|---------------- 5---------- 5--| 2-- 2-- 2---- 2----------------|
D|---------------- 5---------- 5--|-------- 4---- 4----------------|
A|---- 3-- 3------ 3---------- 3--|---- 5-- 5------ 5-------- 5----|
E|--------------------------------|--------------------------------|
http://classicalguitartablature.blogspot.com/
E|---------------------- 7-- 7--10|------------------------------ 7|
B|-- 5--------------------------10|--12--10------12------10--------|
G|------------------------------11|--11----11----11------11--------|
D|--------------------------------|--12--12------12------12--------|
A|--------------------------------|--------------------------------|
E|---- 0-- 0------ 0---------- 0--|----10--10----10------------ 0--|
http://classicalguitartablature.blogspot.com/
E|---- 7------------------------ 7|-- 7------------------------ 7--|
B|--------------------------------|--------------------------------|
G|--------------------------------|--------------------------------|
D|--------------------------------|--------------------------------|
A|----------10-- 7---------- 9----|-- 7----------------------------|
E|---- 3-- 7----------------------|------10------10------------ 0--|
http://classicalguitartablature.blogspot.com/
E|---- 7-- 7-- 7-- 7------ 7--10--|-- 7------------------------ 5--|
B|---------------------------- 7--|---- 7---------------------- 0--|
G|---------------------------- 7--|---- 7---------------------- 0--|
D|--------------------------------|--------------------------------|
A|------------10--10-- 7------ 9--|---- 7--------------------------|
E|---- 3-- 7----------------------|--------10------10---------- 0--|
http://classicalguitartablature.blogspot.com/
E|---- 3--------------------------|---------------------------- 5--|
B|--------10------ 8--10------10--|---- 8--10------ 8---------- 0--|
G|---------------------------- 7--|---- 7-- 7------ 7---------- 0--|
D|---------------------------- 7--|---- 7-- 7------ 7--------------|
A|------------10--10-- 7------ 9--|---- 7--------------------------|
E|---- 3-- 7----------------------|--------10------10---------- 0--|
http://classicalguitartablature.blogspot.com/
E|---- 3--------------------------|---------------------- 5------ 7|
B|--------10------ 8--10------10--|---- 8--10---- 8----------------|
G|---------------------------- 7--|---- 7-- 7---- 7----------------|
D|---------------------------- 7--|---- 7-- 7------ 7--------------|
A|------------10--10-- 7------ 9--|---- 7--------------------------|
E|---- 3-- 7----------------------|--------10------10---------- 0--|
http://classicalguitartablature.blogspot.com/
E|---- 7------------------------ 7|-- 7------------------------ 7--|
B|--------------------------------|--------------------------------|
G|--------------------------------|--------------------------------|
D|--------------------------------|--------------------------------|
A|----------10-- 7---------- 9----|-- 7----------------------------|
E|---- 3-- 7----------------------|------10------10------------ 0--|
http://classicalguitartablature.blogspot.com/
E|---- 7-- 7-- 7-- 7------ 7--10--|-- 7------------------------ 5--|
B|---------------------------- 7--|---- 7---------------------- 0--|
G|---------------------------- 7--|---- 7---------------------- 0--|
D|--------------------------------|--------------------------------|
A|------------10--10-- 7------ 9--|---- 7--------------------------|
E|---- 3-- 7----------------------|--------10------10---------- 0--|
http://classicalguitartablature.blogspot.com/
E|---- 3--------------------------|---------------------------- 5--|
B|--------10------ 8--10------10--|---- 8--10------ 8---------- 0--|
G|---------------------------- 7--|---- 7-- 7------ 7---------- 0--|
D|---------------------------- 7--|---- 7-- 7------ 7--------------|
A|------------10--10-- 7------ 9--|---- 7--------------------------|
E|---- 3-- 7----------------------|--------10------10---------- 0--|
http://classicalguitartablature.blogspot.com/
E|---- 3--------------------------|---------------------- 5------ 3|
B|--------10------ 8--10------10--|---- 8--10---- 8----------------|
G|---------------------------- 7--|---- 7-- 7---- 7----------------|
D|---------------------------- 7--|---- 7-- 7------ 7--------------|
A|------------10--10-- 7------ 9--|---- 7--------------------------|
E|---- 3-- 7----------------------|--------10------10-------- 0----|
http://classicalguitartablature.blogspot.com/
E|-- 0----------------------------|---------------------- 5------ 3|
B|------------------------------ 7|--------------------------------|
G|---------------------- 9--------|-- 7----------------------------|
D|--------------------------------|--------------------------------|
A|------------10--10-- 7---- 9----|---- 7--------------------------|
E|---- 3-- 7----------------------|------10--------10-------- 0----|
http://classicalguitartablature.blogspot.com/
E|-- 0----------------------------|---------------------- 5------ 3|
B|------------------------------ 7|--------------------------------|
G|---------------------- 9--------|-- 7----------------------------|
D|--------------------------------|--------------------------------|
A|------------10--10-- 7---- 9----|---- 7--------------------------|
E|---- 3-- 7----------------------|------10--------10--------------|
http://classicalguitartablature.blogspot.com/
E|--------------------------------|---------------- 3------ 3------|
B|-- 5----------------------------|-------------------- 5---- 5----|
G|--------------------------------|--------------------------------|
D|--------------------------------|--------------------------------|
A|--------------------------------|--------------------------------|
E|---- 0 0------ 0------------ 0--| 0------ 0----------------------|
http://classicalguitartablature.blogspot.com/
E|--------------------------------|--------------------------------|
B|--------------------------------|--------------------------------|
G|--------------------------------|---------------- 7--------------|
D|--------------------------------|---------------- 7--------------|
A|--------------------------------|---------------- 5--------------|
E|---- 0-- 0------ 0---------- 0--| 0------ 0----------------------|
http://classicalguitartablature.blogspot.com/
E|--------------------------------|---------------- 3------ 3------|
B|--------------------------------|-------------------- 5---- 5----|
G| 9------------------------------|--------------------------------|
D| 9------------------------------|--------------------------------|
A| 7------------------------------|--------------------------------|
E| 0-- 0-- 0------ 0---------- 0--| 0------ 0----------------------|
http://classicalguitartablature.blogspot.com/
E|--------------------------------|--------------------------------|
B|--------------------------------|--------------------------------|
G|--------------------------------|---------------- 7--------------|
D|--------------------------------|---------------- 7--------------|
A|--------------------------------|---------------- 5--------------|
E|---- 0-- 0------ 0---------- 0--| 0------ 0----------------------|
http://classicalguitartablature.blogspot.com/
E| 2------------------------------|--------------------------------|
B| 5------------------------------|--------------------------------|
G| 4------------------------------|--------------------------------|
D| 2------------------------------|--------------------------------|
A| 2------------------------------|--------------------------------|
E| 0------------------------------|--------------------------------|
http://classicalguitartablature.blogspot.com/

0 ความคิดเห็น:

แสดงความคิดเห็น