To celebrate the anniversary, I am giving you (finally...) : iPhone LickByNeck !!!!!!

Better Man (BASIC)

Robbie William's classic tune fingerstyle chord melody guitar BASIC arrangement played in the key of A.
You need to install the Flash plugin - http://www.webestools.com/

Better Man - BASIC ARRANGEMENT played in the key of A
http://classicalguitartablature.blogspot.com/
E| 5------ 5---- 5-- 5------ 5-- 5|-------- 5---- 5---- 5------ 5--|
B| 2-- 2-- 2-- 2 2-- 2-- 2---- 2 3|---- 3-- 3-- 3 3-- 3 3-- 3-- 3--|
G| 2-- 2------ 2 2 2-- 2-- 2-- 2--| 2-- 2-- 2-- 2 2-- 2 2-- 2-- 2--|
D|------------ 2---- 2---- 2------|---- 2------ 2---- 2---- 2------|
A| 0------------------------------| 0------------------------------|
E|--------------------------------|--------------------------------|
http://classicalguitartablature.blogspot.com/
E| 5------ 5---- 5---- 5------ 5--| 5------ 5---- 5-------- 2-- 5 2|
B| 2-- 2-- 2 2-- 2-- 2 2-- 2-- 2--| 3-- 3-- 3 3-- 3-------- 5------|
G| 2-- 2-- 2 2-- 2-- 2 2-- 2-- 2--| 2-- 2-- 2 2-- 2----------------|
D|---- 2---- 2------ 2---- 2------|---- 2---- 2--------------------|
A| 0------------------------------| 0------------------------------|
E|--------------------------------|--------------------------------|
http://classicalguitartablature.blogspot.com/
E| 5------ 5------------ 5 4---- 4|---- 2------------------ 2------|
B| 2------ 2---------- 2 2 2------| 2 2-- 2---- 2-------------- 5--|
G| 2------------------ 2-- 2------| 2-- 2---- 2---------- 2--------|
D|---- 2--------------------------|---------- 2-------- 2----------|
A| 0------------ 0 0--------------|--------------------------------|
E|--------------------------------| 2-------------- 2--------------|
http://classicalguitartablature.blogspot.com/
E|-------------------------- 2----| 0---------------------- 0 2 5 2|
B| 5-- 3---------------------- 5--| 0 0 2 0------------------------|
G| 2---- 2---- 2---------- 2------| 1 1 1 1------------------------|
D| 4-------- 4-- 4---- 4----------|---- 0 0------------ 0----------|
A| 2-------------- 2--------------|--------------------------------|
E|--------------------------------| 0------------ 0 0--------------|
http://classicalguitartablature.blogspot.com/
E|-------- 9----------------------| 4-- 2-------------------- 2----|
B|10------1012--------------10 9--| 2-- 2 2-------------------- 5--|
G| 9-------- 9------------ 9------| 2-- 2 2---- 2---------- 2------|
D|----11--------------11----------|------ 2-- 2-------- 2----------|
A| 0------------ 0 0--------------|--------------------------------|
E|--------------------------------| 2------------ 2 2--------------|
http://classicalguitartablature.blogspot.com/
E|-------------------------- 2----| 0------------------------------|
B| 5-- 3---------------------- 5--| 0-- 2 0-------------------- 0--|
G| 2---- 2---- 2---------- 2------| 1-- 1 1---- 1---------- 2------|
D| 4-------- 4-- 4---- 4----------|---- 2 2-- 2-------- 2----------|
A| 2-------------- 2--------------|--------------------------------|
E|--------------------------------| 0------------ 0 0--------------|
http://classicalguitartablature.blogspot.com/
E|---------------------- 2---- 0--| 0------------------------------|
B| 2-------------------- 0---- 0--| 0-- 2 0-------------------- 0--|
G| 2------ 2----------------------| 1 1 1 1---- 1-------- 2--------|
D|---- 0-------------- 0----------|-- 2 2 2-- 2-------- 2----------|
A| 2------------ 2 2--------------|--------------------------------|
E|--------------------------------| 0------------ 0 0--------------|
http://classicalguitartablature.blogspot.com/
E|--------------------------------|--------------------------------|
B| 2------ 2---------- 0-- 0 2----|---------------------------- 2--|
G| 2------ 2---------- 1-- 1------| 4 2------ 2-- 2------ 4--------|
D|---- 2------ 2------ 2-- 2---- 4|---- 4------ 4---- 4------------|
A| 0------------------------------|------------------------------ 2|
E|---------------- 4------------ 2|---------------- 0--------------|
http://classicalguitartablature.blogspot.com/
E|------------------------ 2------| 0---- 0---- 0-- 0--------------|
B| 2-- 3------------------ 3 5----| 0-- 0---- 0 0-- 0------ 2------|
G| 2---------- 2------------ 2----| 2 2---- 2------ 1-------- 4 2--|
D| 4------ 4---------- 4----------|------------------ 2 2 2--------|
A|-------------- 2 2--------------|--------------------------------|
E|--------------------------------| 0-------------- 0--------------|

E|--------------------------------|--------------------------------|
B|-------- 2---- 2------ 2--------| 3 3-- 3---- 3-- 3---- 3--------|
G|-------- 2---- 2------ 2--------| 2 2-- 2---- 2-- 2---- 2--------|
D|---- 2-- 2---- 2-- 2------------| 2 2-- 2---- 2-- 2---- 2--------|
A| 0---------- 0-- 0-------- 0----| 0-------- 0-- 0-- 0-------- 0--|
E|--------------------------------|--------------------------------|
http://classicalguitartablature.blogspot.com/
E|--------------------------------|---- 0 0------------------------|
B|10-- 8-- 8------------------ 3--|---- 1 1------ 1-------- 3 1-- 3|
G| 9-- 9-- 9 9--10---- 9------ 2--|---- 2 2---- 2------ 2----------|
D|10--10--1010--10----10--10-- 3--|---------- 3------ 3------------|
A|--------------------------------|--------------------------------|
E| 8-------------- 8--------------| 1-------------- 1--------------|
http://classicalguitartablature.blogspot.com/
E|-- 0-- 0------------------------|--------------------------------|
B|------------------------ 3-- 3--| 3 1----------------------------|
G| 2---------- 2-------- 1--------| 2---- 2---- 2 1---- 0------ 4--|
D| 3-------- 3-- 3---- 0----------| 2-------- 0-- 0 2 2-- 2-- 3-- 3|
A| 2------------------------------| 0------ 2------ 3------ 5------|
E|---------------- 0--------------|--------------------------------|
http://classicalguitartablature.blogspot.com/
E|--------------------------------|---- 0 0------------------------|
B|10-- 8-- 8------------------ 3--|---- 1 1------ 1-------- 3 1----|
G| 9-- 9-- 9 9--10---- 9------ 2--|---- 2 2---- 2------ 2----------|
D|10--10--1010--10----10--10-- 3--|---------- 3------ 3------------|
A|--------------------------------|--------------------------------|
E| 8-------------- 8--------------| 1-------------- 1--------------|
http://classicalguitartablature.blogspot.com/
E|-- 0 0--------------------------|---------------------- 0 0 2 5 2|
B| 3 3 3------ 3-------- 3-- 3----| 0-- 0-- 0-- 0 0----------------|
G| 2-------- 2------ 2------ 2----| 2-- 2-- 2-- 2-- 1--------------|
D| 0-------- 0---- 0------ 0-- 0--| 0-- 0-- 0-- 0------------------|
A| 2-------------- 2--------------|--------------------------------|
E|--------------------------------| 0-------------- 0--------------|
http://classicalguitartablature.blogspot.com/
E| 5------ 5------------ 5 4---- 4|---- 2------------------ 2------|
B| 2------ 2---------- 2 2 2------| 2 2-- 2---- 2-------------- 5--|
G| 2------------------ 2-- 2------| 2-- 2---- 2---------- 2--------|
D|---- 2--------------------------|---------- 2-------- 2----------|
A| 0------------ 0 0--------------|--------------------------------|
E|--------------------------------| 2-------------- 2--------------|
http://classicalguitartablature.blogspot.com/
E|-------------------------- 2----| 0---------------------- 0 2 5 2|
B| 5-- 3---------------------- 5--| 0 0 2 0------------------------|
G| 2---- 2---- 2---------- 2------| 1 1 1 1------------------------|
D| 4-------- 4-- 4---- 4----------|---- 0 0------------ 0----------|
A| 2-------------- 2--------------|--------------------------------|
E|--------------------------------| 0------------ 0 0--------------|
http://classicalguitartablature.blogspot.com/
E|-------- 9----------------------| 4-- 2-------------------- 2----|
B|10------1012--------------10 9--| 2-- 2 2-------------------- 5--|
G| 9-------- 9------------ 9------| 2-- 2 2---- 2---------- 2------|
D|----11--------------11----------|------ 2-- 2-------- 2----------|
A| 0------------ 0 0--------------|--------------------------------|
E|--------------------------------| 2------------ 2 2--------------|
http://classicalguitartablature.blogspot.com/
E|-------------------------- 2----| 0------------------------------|
B| 5-- 3---------------------- 5--| 0-- 2 0-------------------- 0--|
G| 2---- 2---- 2---------- 2------| 1-- 1 1---- 1---------- 2------|
D| 4-------- 4-- 4---- 4----------|---- 2 2-- 2-------- 2----------|
A| 2-------------- 2--------------|--------------------------------|
E|--------------------------------| 0------------ 0 0--------------|
http://classicalguitartablature.blogspot.com/
E|---------------------- 2---- 0--| 0------------------------------|
B| 2-------------------- 0---- 0--| 0-- 2 0-------------------- 0--|
G| 2------ 2----------------------| 1 1 1 1---- 1-------- 2--------|
D|---- 0-------------- 0----------|-- 2 2 2-- 2-------- 2----------|
A| 2------------ 2 2--------------|--------------------------------|
E|--------------------------------| 0------------ 0 0--------------|
http://classicalguitartablature.blogspot.com/
E|--------------------------------|--------------------------------|
B| 2------ 2---------- 0-- 0 2----|---------------------------- 2--|
G| 2------ 2---------- 1-- 1------| 4 2------ 2-- 2------ 4--------|
D|---- 2------ 2------ 2-- 2---- 4|---- 4------ 4---- 4------------|
A| 0------------------------------|------------------------------ 2|
E|---------------- 4------------ 2|---------------- 0--------------|
http://classicalguitartablature.blogspot.com/
E|------------------------ 2------| 0---- 0---- 0-- 0--------------|
B| 2-- 3------------------ 3 5----| 0-- 0---- 0 0-- 0------ 2------|
G| 2---------- 2------------ 2----| 2 2---- 2------ 1-------- 4 2--|
D| 4------ 4---------- 4----------|------------------ 2 2 2--------|
A|-------------- 2 2--------------|--------------------------------|
E|--------------------------------| 0-------------- 0--------------|
http://classicalguitartablature.blogspot.com/
E|--------------------------------|--------------------------------|
B|-------- 2---- 2------ 2--------| 3 3-- 3---- 3-- 3---- 3--------|
G|-------- 2---- 2------ 2--------| 2 2-- 2---- 2-- 2---- 2--------|
D|---- 2-- 2---- 2-- 2------------| 2 2-- 2---- 2-- 2---- 2--------|
A| 0---------- 0-- 0-------- 0----| 0-------- 0-- 0-- 0-------- 0--|
E|--------------------------------|--------------------------------|
http://classicalguitartablature.blogspot.com/
E| 5------ 5-- 5------ 5---- 5-- 5|-------- 5---- 5---- 5-------- 5|
B| 2-- 2-- 2 2-- 2 2-- 2-- 2 2-- 3|---- 3-- 3-- 3 3-- 3 3-- 3---- 3|
G| 2-- 2-- 2 2-- 2 2-- 2-- 2-- 2--| 2-- 2-- 2-- 2 2-- 2 2-- 2---- 2|
D|---- 2---- 2---- 2------ 2------|---- 2------ 2---- 2---- 2------|
A| 0------------------------------| 0------------------------------|
E|--------------------------------|--------------------------------|
http://classicalguitartablature.blogspot.com/
E|--------------------------------|--------------------------------|
B|------------------ 2------------|--------------------------------|
G|------------------ 2------------|--------------------------------|
D|------------------ 2------------|--------------------------------|
A|---------------- 0--------------|--------------------------------|
E|--------------------------------|--------------------------------|
http://classicalguitartablature.blogspot.com/

0 ความคิดเห็น:

แสดงความคิดเห็น