To celebrate the anniversary, I am giving you (finally...) : iPhone LickByNeck !!!!!!

Casablanca

Pop tune fingerstyle chord melody guitar arrangement played in the key of Em.

Casablanca played in the key of Em.
http://classicalguitartablature.blogspot.com/
E|---- 0--------------------------|---- 0--------------------------|
B|-- 0------ 0--------------------|-- 0------ 0---------------- 0--|
G| 2---- 0---------- 2-- 0--------| 2---- 0---------- 2-- 0--------|
D|-------------- 4----------------|------------ 4------------------|
A|--------------------------------|--------------------------------|
E| 0------------------------------| 0------------------------------|
http://classicalguitartablature.blogspot.com/
E| 3---- 3 3-- 2------------------|--------------------------------|
B| 0-- 0 0 4------ 5---- 5 5-- 3--|---- 5-------- 5----------------|
G| 0 0---- 2------ 4-- 4-- 4---- 5|------ 7---- 7------ 9------ 9 7|
D|---------- 4------ 2------ 3----|-- 5-- 5-- 6------ 7-- 7-- 7-- 7|
A|--------------------------------|------------------------------ 5|
E| 0------ 2------ 3------ 4---- 5|-------- 7------ 8------ 9------|
http://classicalguitartablature.blogspot.com/
E| 5 5 5 5 5-- 3-- 2--------------|--------------------------------|
B| 7------ 5------ 3 5-- 3 3-- 3--| 0 1 1------------------------ 0|
G|------ 5-- 5-- 5 2 2-- 2 5-- 5--| 0 0 0 4---- 4------ 5------ 6 2|
D|------------------ 4-- 4-- 4----| 0------ 3---- 3-- 5------ 5-- 1|
A|--------------------------------|------------------------------ 2|
E|------ 0------ 2------ 4------ 3|-------- 4---- 5------ 6--------|
http://classicalguitartablature.blogspot.com/
E|---------------------- 2--------|---- 3 3 2 3--------------------|
B|-- 0 0 0-- 2---- 4 5-- 1------ 1|---- 0 0 5---- 510-- 8-- 8-- 7 5|
G|-- 2 2 2------ 4------ 2-- 2----|------ 0---- 4-- 9------ 7-- 7--|
D|-------- 1-- 1 2---------- 2----|-- 0-------------- 7---- 6-- 6--|
A|------ 0------------------------|------ 5------------------------|
E|-------------- 3-------- 2------| 0-------------- 8------ 7-- 6 5|
http://classicalguitartablature.blogspot.com/
E|-------- 2-- 2-- 3-- 2-- 0------|--------------------------------|
B| 7 7-- 7 5------ 3------ 3-- 3--| 5 7---- 5----------------------|
G| 7------ 4------ 2---- 2------ 2| 7---- 7 5-- 5-------- 4---- 4--|
D| 7-------- 2-- 2-- 2-- 2-- 0-- 5|---- 5---- 7-- 7-- 5------ 7----|
A|--------------------------------|-------- 6------ 5------ 6------|
E|-------- 3------ 2---- 1------ 0|--------------------------------|
http://classicalguitartablature.blogspot.com/
E| 3---- 3 3-- 2------------------|--------------------------------|
B| 0-- 0 0 4------ 5---- 5 5-- 3--|---- 5-------- 5----------------|
G| 0 0---- 2------ 4-- 4-- 4---- 5|------ 7---- 7------ 9------ 9 7|
D|---------- 4------ 2------ 3----|-- 5-- 5-- 6------ 7-- 7-- 7-- 7|
A|--------------------------------|------------------------------ 5|
E| 0------ 2------ 3------ 4---- 5|-------- 7------ 8------ 9------|
http://classicalguitartablature.blogspot.com/
E| 5 5 5 5 5-- 3-- 2--------------|--------------------------------|
B| 7------ 5------ 3 5-- 3 3-- 3--| 0 1 1------------------------ 0|
G|------ 5-- 5-- 5 2 2-- 2 5-- 5--| 0 0 0 4---- 4------ 5------ 6 2|
D|------------------ 4-- 4-- 4----| 0------ 3---- 3-- 5------ 5-- 1|
A|--------------------------------|------------------------------ 2|
E|------ 0------ 2------ 4------ 3|-------- 4---- 5------ 6--------|
http://classicalguitartablature.blogspot.com/
E|---------------------- 2--------|---- 3 3 2 3--------------------|
B|-- 0 0 0-- 2---- 4 5-- 1------ 1|---- 0 0 5---- 510-- 8-- 8-- 7 5|
G|-- 2 2 2------ 4------ 2-- 2----|------ 0---- 4-- 9------ 7-- 7--|
D|-------- 1-- 1 2---------- 2----|-- 0-------------- 7---- 6-- 6--|
A|------ 0------------------------|------ 5------------------------|
E|-------------- 3-------- 2------| 0-------------- 8------ 7-- 6 5|
http://classicalguitartablature.blogspot.com/
E|-------- 2-- 2-- 3-- 2-- 0------|-------- 0---------------- 7-- 8|
B| 7 7-- 7 5------ 3------ 3-- 3--| 5 7---- 1---- 1---------- 5----|
G| 7------ 4------ 2---- 2------ 2| 7---- 7 2-- 2------ 4---- 4-- 4|
D| 7-------- 2-- 2-- 2-- 2-- 0-- 5|---- 5---- 1------ 2---- 6------|
A|--------------------------------|--------------------------------|
E|-------- 3------ 2---- 1------ 0|-------- 2---- 3-------- 4------|
http://classicalguitartablature.blogspot.com/
E|------ 7------------ 5----------| 5-- 7--------------------------|
B| 5---- 910-- 8-- 7-- 8-- 8--10--| 3-- 6---- 5--------------------|
G| 5---- 7 9-- 9-- 5-- 5-- 5-- 7--|-- 4-- 4-- 5-- 6---- 7-- 9-- 9--|
D|-- 5------ 7-- 8-- 7-- 5-- 9--10|-------------- 5-- 6---- 8-- 9--|
A|---------------- 5-- 6-- 7-- 9--|--------------------------------|
E| 5-- 7-- 8-- 9------------------| 3-- 4-- 5 6---- 7------ 9--10--|
http://classicalguitartablature.blogspot.com/
E| 8---- 7--------------------10--|10 7----------------------------|
B| 5----10---- 8-- 7-- 7-- 7--10--| 8---- 8------------------------|
G| 5---- 8 9-- 8-- 7-- 7-- 7-- 9 9|---- 9--------11------12------14|
D|-- 5------10-- 9-- 7-- 6-- 7-- 7|---------- 9------10------13----|
A| 7-- 9--10--11------------------|--------------------------------|
E|---------------- 5-- 6-- 7-- 8 9|--------10------11------13------|
http://classicalguitartablature.blogspot.com/
E| 7---- 5------------------------|--------------------------------|
B| 8---- 7 8-- 7-------- 5 5-- 3--|---- 5-------- 8-------- 8------|
G| 7---- 5 9-- 9-- 9---- 7 7-- 4--| 5-- 4-------- 2 7-- 7------ 5 7|
D|-- 9------ 9-- 9-- 7-- 7-- 6-- 3|-- 5-- 3-- 3-- 2-- 5------ 8----|
A| 7-- 6--------------------------|---------------- 7---- 6------ 5|
E|--------10-- 9-- 8-- 7-- 6-- 4--| 5-- 4-- 3 2--------------------|
http://classicalguitartablature.blogspot.com/
E| 5 5 5 5------------------------|--------------------------------|
B| 7------10 8-- 7------ 7-- 7-- 7|-- 8 5------ 5-------------- 0--|
G|------ 9------ 9-- 9 7 7------ 6|------ 5-- 5-------- 4------ 2 5|
D|------ 9 9-- 9 7------ 5 5-- 5 5|------ 5-- 5------ 3------ 2----|
A|--------------------------------|--------------------------------|
E|------ 9------ 8------ 7------ 6|-------- 5---- 4------ 3------ 2|
http://classicalguitartablature.blogspot.com/
E| 5 5 5 5-- 3--------------------| 2 3----------------------------|
B| 5---- 3------ 7-- 5 3-- 7-- 7--| 4------ 5----------------------|
G|-------- 2-- 2 5-- 5 4 4------ 2|-------- 7----------------------|
D|-------------- 7-- 7 5 5--------|-------- 5----------------------|
A|-------------- 7-- 6 5 4------ 3|--------------------------------|
E|------ 1------------------------|------ 7------------------------|
http://classicalguitartablature.blogspot.com/

0 ความคิดเห็น:

แสดงความคิดเห็น