To celebrate the anniversary, I am giving you (finally...) : iPhone LickByNeck !!!!!!

Cavatina (The Deer Hunter)

Theme from The Deer Hunter. A beautiful tune arranged by John Williams fingerstyle chord melody guitar arrangement played in the key of E.

Cavatina played in the key of E.
http://classicalguitartablature.blogspot.com/
E|------------------------|------------------------|
B|------------ 5----------|------------ 5----------|
G|------ 4------ 4--------|------ 4------ 4--------|
D|---- 6------------ 6----|-- 6---------------- 6--|
A|---------------------- 7|------------------------|
E| 0----------------------|------------------------|
http://classicalguitartablature.blogspot.com/
E| 7-------------------- 7|------------------------|
B| 5---------- 5----------| 9-------- 9----------10|
G| 4------ 4------ 4------|------ 8------ 8--------|
D|---- 6-------------- 6--|---- 6------------ 6----|
A|------------------------| 6----------------------|
E| 0----------------------|---------------------- 9|
http://classicalguitartablature.blogspot.com/
E|-- 9--------------------|------------------------|
B|12----------10----------|------------10--------10|
G|------ 9------ 9--------|------ 9------ 9--------|
D|--------------------11--|----11--------------11--|
A|------------------------| 9----------------------|
E|------------------------|---------------------- 7|
http://classicalguitartablature.blogspot.com/
E|-- 7 9------------------|---------------- 7---- 7|
B|----------10------------|------------10------10--|
G| 9---- 9------ 9--------|------ 8----------------|
D| 7------------------ 7--|---- 7------------------|
A|------------------------|------------------------|
E|------------------------| 7----------------------|
http://classicalguitartablature.blogspot.com/
E|------------------------|------------------ 5 4 4|
B| 9---------- 9----------|---------- 3------------|
G|------ 8-------- 8------|------ 4-------- 4------|
D|---- 9-------------- 9--|-- 6--------------------|
A| 7----------------------|------------------------|
E|------------------------| 0----------------------|
http://classicalguitartablature.blogspot.com/
E|------------------------| 2----------------------|
B| 5---------- 5----------| 2---------- 2---- 5----|
G| 6------ 6---- 6--------| 2---- 2------ 2--------|
D|---- 6-------------- 6--|---- 4------------ 4----|
A|---------------------- 5|------------------------|
E| 5----------------------|------------------------|
http://classicalguitartablature.blogspot.com/
E| 2-------------------- 0|---------------------- 0|
B| 3---------- 3-------- 0|------------ 0-------- 0|
G| 4---- 4------ 4--------| 0------ 0------ 0------|
D|---- 4-------------- 4--|---- 2------------ 2----|
A|---------------------- 3|------------------------|
E| 3----------------------|------------------------|
http://classicalguitartablature.blogspot.com/
E|------------------------|------ 2-------------- 0|
B|------------ 0----------|-------------- 4--------|
G| 2---- 2-------- 2------|------ 2-- 4-- 2------ 2|
D|-- 4-------------- 4----|---- 4------------ 4----|
A| 2----------------------| 2----------------------|
E|------------------------|---------------------- 0|
http://classicalguitartablature.blogspot.com/
E|------------------------|---------- 0-- 4-- 5----|
B|---------------------- 0|------ 0----------------|
G|------ 1---------- 1----|-- 1--------------------|
D|-- 4------ 1-- 2--------|------------------------|
A|------------------------|------------------------|
E|------------------------|------------------------|
http://classicalguitartablature.blogspot.com/
E| 7-------------------- 7|------------------------|
B| 5---------- 5----------| 9-------- 9----------10|
G| 4------ 4------ 4------|------ 8------ 8--------|
D|---- 6-------------- 6--|---- 6------------ 6----|
A|------------------------| 6----------------------|
E| 0----------------------|---------------------- 9|
http://classicalguitartablature.blogspot.com/
E|-- 9--------------------|------------------------|
B|12----------10----------|------------10--------10|
G|------ 9------ 9--------|------ 9------ 9--------|
D|--------------------11--|----11--------------11--|
A|------------------------| 9----------------------|
E|------------------------|---------------------- 7|
http://classicalguitartablature.blogspot.com/
E|-- 7 9------------------|---------------- 7---- 7|
B|----------10------------|------------10------10--|
G| 9---- 9------ 9--------|------ 8----------------|
D| 7------------------ 7--|---- 7------------------|
A|------------------------|------------------------|
E|------------------------| 7----------------------|
http://classicalguitartablature.blogspot.com/
E|------------------------|------------------ 5 4 4|
B| 9---------- 9----------|---------- 3------------|
G|------ 8-------- 8------|------ 4-------- 4------|
D|---- 9-------------- 9--|-- 6--------------------|
A| 7----------------------|------------------------|
E|------------------------| 0----------------------|
http://classicalguitartablature.blogspot.com/
E|------------------------| 2----------------------|
B| 5---------- 5----------| 2---------- 2---- 5----|
G| 6------ 6---- 6--------| 2---- 2------ 2--------|
D|---- 6-------------- 6--|---- 4------------ 4----|
A|---------------------- 5|------------------------|
E| 5----------------------|------------------------|
http://classicalguitartablature.blogspot.com/
E| 2-------------------- 0|---------------------- 0|
B| 3---------- 3-------- 0|------------ 0-------- 0|
G| 4---- 4------ 4--------| 0------ 0------ 0------|
D|---- 4-------------- 4--|---- 2------------ 2----|
A|---------------------- 3|------------------------|
E| 3----------------------|------------------------|
http://classicalguitartablature.blogspot.com/
E|------------------------|------ 2-------------- 0|
B|------------ 0----------|-------------- 4--------|
G| 2---- 2-------- 2------|------ 2-- 4-- 2--------|
D|-- 4-------------- 4----|---- 4------------ 4----|
A| 2----------------------| 2----------------------|
E|------------------------|------------------------|
http://classicalguitartablature.blogspot.com/
E|---------------------- 0|------ 0-- 4-- 7--11----|
B|------------------ 0----|-- 0--------------------|
G| 2---- 1------ 1--------|------------------------|
D|---- 4---- 2------------|------------------------|
A|------------------------|------------------------|
E| 0----------------------|------------------------|
http://classicalguitartablature.blogspot.com/
E|12----------------------|12----------------11 9--|
B| 9---------- 9----------|---------- 9------------|
G| 9---- 9------ 9--------| 9---- 9------ 9------ 8|
D|---- 9-------------- 9--|---- 9------------ 9----|
A|------------------------| 9----------------------|
E| 9----------------------|---------------------- 7|
http://classicalguitartablature.blogspot.com/
E| 91112--11--------------|-------------- 9-- 7-- 5|
B|------------ 7----------|---------- 7---------- 2|
G|-------------- 8--------|------ 8-------------- 2|
D|------------------ 9----|-- 9--------------------|
A|------------------------|------------------------|
E|------------------------| 7-------------------- 2|
http://classicalguitartablature.blogspot.com/
E|------------------------|------ 7----------------|
B|---------- 2----------10|-------------- 7------ 9|
G|------ 2------ 2--------|---------- 8---------- 8|
D|-- 2-------------- 2----|------ 7------ 7--------|
A|------------------------|-- 9-------------- 9----|
E|---------------------- 7|---------------------- 0|
http://classicalguitartablature.blogspot.com/
E|------------------------|-------------- 0---- 2 4|
B|------------------------|---------- 3------------|
G|---------- 8------------|------ 4----------------|
D|------ 9------ 9--------|---- 2------------------|
A|-- 7---------------- 7--|------------------------|
E|------------------------| 0----------------------|
http://classicalguitartablature.blogspot.com/
E|------------------------| 5----------------------|
B| 2---------- 2----------| 7---------- 7----------|
G| 2------ 2------ 2------| 6------ 6------ 6------|
D|---- 2------------------|---- 7-------------- 7--|
A| 0----------------------| 5----------------------|
E|------------------------|------------------------|
http://classicalguitartablature.blogspot.com/
E| 6-------------------- 7|------------------------|
B| 7-------- 7---------- 4|---------- 4------------|
G| 6---- 6------ 6------ 4|------ 4------ 4--------|
D|---- 8------------ 8----|-- 4---------------- 4--|
A| 7----------------------| 6----------------------|
E|------------------------|------------------------|
http://classicalguitartablature.blogspot.com/
E| 7----------------------|12--------------------12|
B| 7-------- 7------------|12----------12----------|
G| 4------ 4---- 4--------|12------12----12--------|
D|---- 4-------------- 4--|---- 9-------------- 9--|
A| 5----------------------|------------------------|
E|------------------------| 8----------------------|
http://classicalguitartablature.blogspot.com/
E|------------------------|---- 8 8----1010-- 7-- 7|
B|------------------------| 7-- 7 7---- 7 7-- 7-- 7|
G|------------------------| 8-- 8 8---- 8 8-- 8-- 8|
D|10----------------------|------------------------|
A| 9----------------------|------------------------|
E| 7----------------------|------------------------|
http://classicalguitartablature.blogspot.com/
E|-- 8-- 8------ 7-- 8-- 0|------------------------|
B|-- 7---- 710-- 7-- 7-- 1|------------------------|
G|-- 8---- 8-- 8 8-- 8----| 2----------------------|
D|------------ 7----------|------------------------|
A|------------------------| 2----------------------|
E|------------------------|------------------------|
http://classicalguitartablature.blogspot.com/
E|------------------------|------------------------|
B|------------------------|------------------------|
G|-- 5-- 5-- 7-- 7-- 4-- 4|-- 5--------------------|
D|------------------------|------ 7-- 4-- 2--------|
A|------------------------|------------------ 3-- 2|
E|------------------------|------------------------|
http://classicalguitartablature.blogspot.com/
E|------------------------|------------ 2----------|
B|------------------------|-------- 2------ 2------|
G|------------------------|------------------------|
D|------------------------|---- 2-------------- 2--|
A|-- 0---------------- 0--| 1----------------------|
E|------ 3---- 2-- 3------|------------------------|
http://classicalguitartablature.blogspot.com/
E|---------- 2------------|------------------------|
B|------ 3----------------|---------- 3------------|
G|------------------------|------ 3------ 3--------|
D|---- 4------------------|-- 3-------------- 3-- 3|
A| 2------------ 2-- 4-- 5|------------------------|
E|------------ 2-------- 4|---------------------- 2|
http://classicalguitartablature.blogspot.com/
E|------------------------|---------- 3------------|
B|------------------------|------ 4------ 4--------|
G|------------------------|-- 3-------------- 3-- 3|
D|------ 1------ 1-- 3-- 5|------------------------|
A|---- 1---- 1---------- 4|---------------------- 2|
E|------ 2----------------|------------------------|
http://classicalguitartablature.blogspot.com/
E|------------------------|---------- 0------------|
B|------------------------|------ 0------ 0--------|
G|------ 1------ 1-- 3-- 4|------------------------|
D|-- 1------ 1------------|-- 2-------------- 2----|
A|------------------------|------------------------|
E|---------------------- 4|---------------------- 4|
http://classicalguitartablature.blogspot.com/
E|---------- 0------------|------------------------|
B|------ 0------ 0---- 2--| 0----------------------|
G|------------------------| 2---------- 2----------|
D|-- 2-------------- 2----|-------- 1------ 1------|
A|------------------------|---- 2------------ 2----|
E|------------------------| 2----------------------|
http://classicalguitartablature.blogspot.com/
E|------------------------|------------------------|
B|-------------- 0-- 2----| 0----------------------|
G|---------- 2------------| 1---------- 1----------|
D|------ 1------ 1--------|-------- 0------ 0------|
A|-- 2-------------- 2----|---- 2-------------- 2--|
E| 2----------------------| 0----------------------|
http://classicalguitartablature.blogspot.com/
E|------------------------|---------- 0------------|
B|---- 2------------------|------ 0------ 0--------|
G|------ 2-- 1------------|-- 2-------------- 2----|
D|-------------- 4-- 2-- 2|------------------------|
A| 0----------------------|---------------------- 2|
E|------------------------| 2----------------------|
http://classicalguitartablature.blogspot.com/
E|------------------------|------------------------|
B|---------- 4-- 0--------|---------------------- 0|
G|-- 2-------------- 2-- 2|------ 1---------- 1----|
D|------ 4------ 1------ 2|-- 4------ 1-- 2--------|
A|------------------------|------------------------|
E|---------------------- 0|------------------------|
http://classicalguitartablature.blogspot.com/
E|---------- 0-- 4---- 5--| 7-------------------- 7|
B|------ 0----------------| 5---------- 5----------|
G|-- 1--------------------| 4------ 4------ 4------|
D|------------------------|---- 6-------------- 6--|
A|------------------------|------------------------|
E|------------------------| 0----------------------|
http://classicalguitartablature.blogspot.com/
E|------------------------|-- 9--------------------|
B| 9-------- 9----------10|12----------10----------|
G|------ 8------ 8--------|------ 9------ 9--------|
D|---- 6------------ 6----|--------------------11--|
A| 6----------------------|------------------------|
E|---------------------- 9|------------------------|
http://classicalguitartablature.blogspot.com/
E|------------------------|-- 7 9------------------|
B|------------10--------10|----------10------------|
G|------ 9------ 9--------| 9---- 9------ 9--------|
D|----11--------------11--| 7------------------ 7--|
A| 9----------------------|------------------------|
E|---------------------- 7|------------------------|
http://classicalguitartablature.blogspot.com/
E|---------------- 7---- 7|------------------------|
B|------------10------10--| 9---------- 9----------|
G|------ 8----------------|------ 8-------- 8------|
D|---- 7------------------|---- 9-------------- 9--|
A|------------------------| 7----------------------|
E| 7----------------------|------------------------|
http://classicalguitartablature.blogspot.com/
E|------------------ 5 4 4|------------------------|
B|---------- 3------------| 5---------- 5----------|
G|------ 4-------- 4------| 6------ 6---- 6--------|
D|-- 6--------------------|---- 6-------------- 6--|
A|------------------------|---------------------- 5|
E| 0----------------------| 5----------------------|
http://classicalguitartablature.blogspot.com/
E| 2----------------------| 2-------------------- 0|
B| 2---------- 2---- 5----| 3---------- 3-------- 0|
G| 2---- 2------ 2--------| 4---- 4------ 4--------|
D|---- 4------------ 4----|---- 4-------------- 4--|
A|------------------------|---------------------- 3|
E|------------------------| 3----------------------|
http://classicalguitartablature.blogspot.com/
E|---------------------- 0|------------------------|
B|------------ 0-------- 0|------------ 0----------|
G| 0------ 0------ 0------| 2---- 2-------- 2------|
D|---- 2------------ 2----|-- 4-------------- 4----|
A|------------------------| 2----------------------|
E|------------------------|------------------------|
http://classicalguitartablature.blogspot.com/
E|------ 2-------------- 0|------------------------|
B|-------------- 4--------|---------------------- 0|
G|------ 2-- 4-- 2------ 2|------ 1---------- 1----|
D|---- 4------------ 4----|-- 4------ 1-- 2--------|
A| 2----------------------|------------------------|
E|---------------------- 0|------------------------|
http://classicalguitartablature.blogspot.com/
E|---------- 0-- 4-- 7----|11----12----------------|
B|------ 0----------------| 9----------------------|
G|-- 1--------------------| 9----------------------|
D|------------------------|------------------------|
A|------------------------|------------------------|
E|------------------------| 9----------------------|
http://classicalguitartablature.blogspot.com/
E|------------------------|---------------- 2 4 2--|
B|---- 4---- 5------------|------ 5----------------|
G|-- 2--------------------|------ 2----------------|
D|-- 2--------------------|---- 4------------------|
A| 4----------------------|---- 2------------------|
E| 2----------------------|------------------------|
http://classicalguitartablature.blogspot.com/
E|------------------------|-------- 0--------------|
B|------------ 5----------|------------------------|
G|------------------------|-------- 2---- 4--------|
D|------------------------|------ 4-------- 6------|
A|------------------------|------------------------|
E|------------------------|------ 0----------------|
http://classicalguitartablature.blogspot.com/

0 ความคิดเห็น:

แสดงความคิดเห็น