To celebrate the anniversary, I am giving you (finally...) : iPhone LickByNeck !!!!!!

Don't Cry For Me Argentina

Andrew Lloyd Webber's classic tune fingerstyle chord melody guitar arrangement played in the key of Db.

Don't Cry For Me Argentina played in the key of Db.
http://classicalguitartablature.blogspot.com/
E|--------------------------------|--------------------------------|
B| 6-- 9--------------------------|-- 2----------------------------|
G| 5-- 8-- 8-- 6-- 6 1---- 1-- 1 3|-- 2-------------- 3-------- 1--|
D| 6-- 6-- 6-- 4-- 4-- 1-- 1-- 1 4|---- 4---- 4------ 4------ 4----|
A| 4------------------------------| 6---- 5------ 4------ 3--------|
E|---- 8-- 7-- 6-- 5-- 4-- 2-- 1--|--------------------------------|
http://classicalguitartablature.blogspot.com/
E|---------- 4-- 4------ 4------ 4|-- 4------ 4-- 4------ 9--------|
B|---- 4---- 4-- 2------ 2------ 7|-- 6---------- 5---- 5 9------11|
G|-- 3------ 3-- 2---- 2 1-- 1-- 6|-- 6------ 6-- 4-- 4-- 8---- 810|
D|-- 3----------------------------|-------------------------- 8----|
A| 4------ 3---- 2------ 1--------|------------------------ 8---- 9|
E|--------------------------------| 5---- 4------ 3----------------|
http://classicalguitartablature.blogspot.com/
E|---------------------- 6-- 6----|------ 6-- 6-- 6-------- 6-- 6--|
B|---------------------- 6-- 6--11|-------- 7 7-- 9-------- 7-- 7--|
G|-------------- 6------ 4-- 4--10|----10-- 8 8-- 8---- 8-- 6-- 6--|
D|----11----11------ 4------------|--11-------------- 6------------|
A|-------- 8---- 6------ 5--------|--------------------------------|
E|------------------------------ 9|-------- 8---- 7-------- 6------|
http://classicalguitartablature.blogspot.com/
E| 4------------------------------|------------------------------ 2|
B| 1---------------------- 4-- 6 7|------ 7-- 7---- 7------ 7 7----|
G| 1---- 1------------ 1-- 6-- 4 8|------ 8-- 6---- 6-- 6-- 6 6----|
D|---- 1---- 1------ 3---- 4-- 6 8|------ 8-- 7------ 4-------- 4--|
A|------------------------ 6-- 5--|--------------------------------|
E| 4------ 2---- 1----------------| 9---- 8-- 7---- 6------ 5------|
http://classicalguitartablature.blogspot.com/
E|------ 1------------------------|---------------------- 4--------|
B| 2-- 2-- 2 4-- 6----------------|------------ 6-- 6---- 7--------|
G| 3 3---- 3 2-- 6---- 6------ 6--|---- 5------ 5-- 6---- 6---- 6--|
D|---------- 1------ 6------ 6----|---- 6------ 6---- 6------ 4----|
A|-------------- 8-------- 6------| 4------ 3----------------------|
E| 4------ 3 2--------------------|---------------- 6------ 5------|
http://classicalguitartablature.blogspot.com/
E| 6------------------------------|-------------- 1------ 1-- 4----|
B| 6------------------------------| 6-- 6---- 6-- 2------ 1-- 3-- 9|
G| 6---------- 810------------ 8--| 6-- 5---- 6-------- 3 1-- 4----|
D|---- 6------ 7------ 8 7---- 7--| 6-- 4---- 6------ 3------------|
A|--------------------------------|------------------------------ 6|
E| 6------ 8------ 9------ 8------| 6---- 5-- 4-- 3------ 1-- 0----|
http://classicalguitartablature.blogspot.com/
E|--------------------------------|--------------------------------|
B|-------- 8-- 8-- 8-------- 6-- 6|---- 4---- 4-- 4------ 4-- 6----|
G|---- 6-- 8-- 8-- 6-- 6------ 8 3|---- 6---- 1-- 3---- 3 3-- 6----|
D|-- 8-- 8---- 8---- 8-------- 6 5|---- 5---- 3-- 5-- 5-- 3-- 5----|
A|-------- 8--10------------------| 4-- 6--------------------------|
E|---------------- 6------ 8------|---------- 1-- 3------ 4---- 6--|
http://classicalguitartablature.blogspot.com/
E|--------------------------------|-------------- 6-------------- 4|
B| 4-------------------- 4--------| 4-- 4---- 4-- 9---- 9---- 8-- 1|
G| 1-- 1------ 1------ 1 1--------| 6-- 3---- 1-- 8---- 6---- 6-- 1|
D|-- 1------ 1------ 1-- 1--------| 5-- 5---- 1-------- 6---- 5----|
A| 3------ 1----------------------| 6-- 4---- 3--------------------|
E|-------------- 4------ 2---- 1--|-------------- 7---- 6---- 5-- 4|
http://classicalguitartablature.blogspot.com/
E|--------------------------------|-------------------------- 4-- 6|
B|--------------------------------| 6-- 6---- 6-- 6---- 7---- 6-- 6|
G|---- 1------ 1-- 8-- 7-- 6-- 5--| 5---- 5-- 6-- 6---- 6---- 6-- 6|
D|-- 1------ 1------ 6 6---- 4 4--| 6-- 6---- 7-- 4---- 4----------|
A|---------------- 8-- 7-- 6-- 5--| 4---- 3------------------------|
E|-------- 2----------------------|---------- 7-- 6---- 5---- 4-- 3|
http://classicalguitartablature.blogspot.com/
E|-- 4------------------------ 4--|------------ 4-- 9--------------|
B|-- 1------------------------ 511|----11------ 711------ 9------ 7|
G|-- 1------ 1-------- 6---- 5--10|----10 6---- 610------ 6------ 4|
D|------------------ 4------------|11--11 6------------------ 6-- 6|
A|---------------- 6---- 5--------|----------------11--10-- 8-- 6 5|
E|------ 1------------------------| 9-- 8-- 6-- 5------------------|
http://classicalguitartablature.blogspot.com/
E|---------------------------- 4--|--------------------------------|
B|---- 6-------------- 6 7---- 7--| 4-- 4-------------- 4-- 6-- 7--|
G|---- 5------ 5------ 6 6---- 6--| 5-- 1-------- 6---- 3-- 3-- 6--|
D|---- 6---- 6---- 7-------- 4----| 4-- 1------------ 4 4---- 4 7--|
A|---- 4 3------------------------|-------------- 6---- 4-- 3------|
E|-------------- 7------ 6---- 5--| 4------ 2-- 1-------------- 7--|
http://classicalguitartablature.blogspot.com/
E|--------------------------------|--------------------------------|
B| 2------------------ 2-- 4-- 2--| 6-- 9--------------------------|
G| 1-- 6---------- 1-- 1-- 6-- 2--| 5-- 8-- 8-- 6-- 6 1---- 1-- 1 3|
D|-- 3 4---- 4-- 5-- 1 1---- 4 4--| 6-- 6-- 6-- 4-- 4-- 1-- 1-- 1 4|
A| 1---------------------- 6-- 5--| 4------------------------------|
E|---- 5-- 4---- 3 2-- 1----------|---- 8-- 7-- 6-- 5-- 4-- 2-- 1--|
http://classicalguitartablature.blogspot.com/
E|--------------------------------|-------------- 1---- 2---- 4----|
B|-- 2----------------------------| 6-- 6---- 6-- 2---- 4---- 2-- 7|
G|-- 2-------------- 3-------- 1--| 6-- 6---- 6-- 3---- 2---- 2-- 6|
D|---- 4---- 4------ 4------ 4----| 7-- 4---- 4--------------------|
A| 6---- 5------ 4------ 3--------|------------------------------ 6|
E|--------------------------------| 7-- 6---- 5-- 3---- 2---- 1----|
http://classicalguitartablature.blogspot.com/
E| 6-------- 4--------------------|--------------------------------|
B|-------- 6----------------------|--------------------------------|
G|-------- 5----------------------|--------------------------------|
D|--------------------------------|--------------------------------|
A|------ 4------------------------|--------------------------------|
E|--------------------------------|--------------------------------|
http://classicalguitartablature.blogspot.com/

0 ความคิดเห็น:

แสดงความคิดเห็น