To celebrate the anniversary, I am giving you (finally...) : iPhone LickByNeck !!!!!!

Feelings (Intermediate)

Pop ballad fingerstyle chord melody guitar intermediate arrangement played in the key of Bm.

Feelings played in the key of Bm.
http://classicalguitartablature.blogspot.com/
E|------ 3------ 2------ 0--------|------ 2------ 2-------------- 2|
B|---- 3 3------ 3------ 3---- 3 5|------ 5------ 5-------------- 3|
G|---- 0------------------------ 4|-------------- 3------ 3------ 4|
D|---- 4------ 4---- 4------------|-- 2-------- 2------ 2------ 2--|
A| 5---------------------------- 4|--------------------------------|
E|--------------------------------|---------------- 2--------------|
http://classicalguitartablature.blogspot.com/
E|--------------------------------|------------------------------ 2|
B|---- 0--------------------------|------------------ 2-- 3------ 3|
G|---- 4---- 4-------- 4----------| 3------------ 4------ 4---- 4--|
D|---- 4---- 4-------- 4------ 4--| 2-- 2------ 2 4------ 2--------|
A| 2------ 0----------------------|-------------- 5------ 3--------|
E|---------------- 4------ 3------| 2------ 0----------------------|
http://classicalguitartablature.blogspot.com/
E|--------------------------------|--------------------------------|
B|--------------------------------|-------------------- 2-- 3-- 0 7|
G| 4-- 4--------------------------|---- 1---------- 4------ 0------|
D|---- 4------ 4------ 4------ 4--|---- 0------ 6-- 2------ 2------|
A| 2------ 0----------------------|-------- 5------ 4------ 3------|
E|-------------- 4-------- 2------| 0------------------------------|
http://classicalguitartablature.blogspot.com/
E|--------------------------------|--------------------------------|
B|---- 5--------------------------|-------------- 2-- 3-- 5------ 7|
G| 7-- 7-------------- 6------ 4--| 2---------- 2 2------ 6-- 6-- 6|
D| 5-- 5------ 5---- 5-------- 4--| 2-- 2---- 2-- 2------ 5-- 5----|
A|--------------------------------|---------------------- 6------ 5|
E| 7------ 6------ 5------ 4------| 3---- 2------ 0----------------|
http://classicalguitartablature.blogspot.com/
E|--------------------------------|------------------------------ 2|
B|--------------------------------|------------------------------ 3|
G|---- 6-------- 6------ 6---- 6--|---- 4------ 4------ 2------ 6 4|
D|-- 7------ 7------ 7------ 7----|-- 2------ 4------ 4------ 4----|
A|-------- 4-------------- 0------|--------------------------------|
E|---------------- 7--------------| 3------ 4------ 5------ 6------|
http://classicalguitartablature.blogspot.com/
E|--------------------------------|------------------------------ 2|
B|---- 0--------------------------|------------------ 2-- 3------ 3|
G|---- 4---- 4-------- 4----------| 3------------ 4------ 4---- 4--|
D|---- 4---- 4-------- 4------ 4--| 2-- 2------ 2 4------ 2--------|
A| 2------ 0----------------------|-------------- 5------ 3--------|
E|---------------- 4------ 3------| 2------ 0----------------------|
http://classicalguitartablature.blogspot.com/
E|--------------------------------|--------------------------------|
B|--------------------------------|-------------------- 2-- 3-- 0 7|
G| 4-- 4--------------------------|---- 1---------- 4------ 0------|
D|---- 4------ 4------ 4------ 4--|---- 0------ 6-- 2------ 2------|
A| 2------ 0----------------------|-------- 5------ 4------ 3------|
E|-------------- 4-------- 2------| 0------------------------------|
http://classicalguitartablature.blogspot.com/
E|--------------------------------|--------------------------------|
B|---- 5--------------------------|-------------- 2-- 3-- 5------ 7|
G| 7-- 7-------------- 6------ 4--| 2---------- 2 2------ 6-- 6-- 6|
D| 5-- 5------ 5---- 5-------- 4--| 2-- 2---- 2-- 2------ 5-- 5----|
A|--------------------------------|---------------------- 6------ 5|
E| 7------ 6------ 5------ 4------| 3---- 2------ 0----------------|
http://classicalguitartablature.blogspot.com/
E|--------------------------------|------------------------------ 7|
B|--------------------------------|------------------------------ 5|
G|---- 6-------- 6------ 6---- 6--|---- 4------ 4------ 2------ 2--|
D|-- 7------ 7------ 7------ 7----|-- 3------ 3------ 2------ 1----|
A|-------- 4-------------- 0------|--------------------------------|
E|---------------- 7------------ 4|------ 3-------- 2---- 1--------|
http://classicalguitartablature.blogspot.com/
E|--------------------------------|------------ 7-- 5------ 2 3----|
B|---------------- 3--------------|------------ 8-- 5-- 8-- 2-- 2--|
G| 7---------- 5-- 4--------------|---- 9------ 7-- 6------ 2 2----|
D|------------ 7------ 5------ 5--|---- 7-------------- 5----------|
A| 7------ 6------ 5------ 4------|--------------------------------|
E|--------------------------------| 8------ 7------ 5------ 3------|
http://classicalguitartablature.blogspot.com/
E|--------------------------------|--------------------------------|
B|10----------10------------------|------------10-- 8-- 7-- 5-- 7--|
G| 9---- 7---- 7------ 9------ 6--|----11------ 9-- 8------ 4------|
D| 7-- 7-- 9-- 9------ 7---- 7----|-- 9-------- 8-- 7------ 4------|
A| 9------ 8------ 7---- 6--------|--------------------------------|
E|--------------------------------|10------ 8---- 7-------- 5------|
http://classicalguitartablature.blogspot.com/
E| 3---------- 3------------------|---------------------------- 0--|
B| 5---------- 5------ 5------ 5--|------------ 8-- 7-- 5-- 3-- 3--|
G| 4-- 4-- 2-- 4---- 4------ 4----|------ 9---- 7-- 6-- 6-- 2-- 2--|
D|-- 5---- 1----------------------|-- 7-------- 5---- 5---- 2------|
A|---------------------- 5--------|--------------------------------|
E| 3------ 2------ 0--------------| 9------ 7------ 5------ 3------|
http://classicalguitartablature.blogspot.com/
E| 2------------------------------|------------------------------ 7|
B| 2------------------------------|------------------------------ 5|
G| 2-- 2-- 4-- 4------ 6------ 6--|---- 8------ 9------11------11--|
D|-- 2------ 2------ 4------ 4----|-- 7------ 7------ 9------ 9----|
A|--------------------------------|--------------------------------|
E| 2-------- 3---- 5------ 6---- 7|-------- 9------10------11------|
http://classicalguitartablature.blogspot.com/
E|--------------------------------|------------ 7-- 5------ 2 3----|
B|---------------- 3--------------|------------ 8-- 5-- 8-- 2-- 2--|
G| 7---------- 5-- 4--------------|---- 9------ 7-- 6------ 2 2----|
D|------------ 7------ 5------ 5--|---- 7-------------- 5----------|
A| 7------ 6------ 5------ 4------|--------------------------------|
E|--------------------------------| 8------ 7------ 5------ 3------|
http://classicalguitartablature.blogspot.com/
E|--------------------------------|--------------------------------|
B|10----------10------------------|------------10-- 8-- 7-- 5-- 7--|
G| 9---- 7---- 7------ 9------ 6--|----11------ 9-- 8------ 4------|
D| 7-- 7-- 9-- 9------ 7---- 7----|-- 9-------- 8-- 7------ 4------|
A| 9------ 8------ 7---- 6--------|--------------------------------|
E|--------------------------------|10------ 8---- 7-------- 5------|
http://classicalguitartablature.blogspot.com/
E| 3---------- 3------------------|---------------------------- 0--|
B| 5---------- 5------ 5------ 5--|------------ 8-- 7-- 5-- 3-- 3--|
G| 4-- 4-- 2-- 4---- 4------ 4----|------ 9---- 7-- 6-- 6-- 2-- 2--|
D|-- 5---- 1----------------------|-- 7-------- 5---- 5---- 2------|
A|---------------------- 5--------|--------------------------------|
E| 3------ 2------ 0--------------| 9------ 7------ 5------ 3------|
http://classicalguitartablature.blogspot.com/
E| 2------------------------------|--------------------------------|
B| 3------------------------------|--------------------------------|
G| 2-- 2------ 2-- 6------ 7------|---- 4------ 3------ 0------ 0--|
D|-- 2------ 2-------- 5-- 4-- 4--|-- 5------ 5------ 2------ 2----|
A|---------------- 6------ 5------| 4------ 3------ 2------ 1------|
E| 2------ 0----------------------|--------------------------------|
http://classicalguitartablature.blogspot.com/
E|--------------------------------|--------------------------------|
B| 7------------------------------|--------------------------------|
G| 6-- 4--------------------------|--------------------------------|
D| 4-- 4--------------------------|--------------------------------|
A|--------------------------------|--------------------------------|
E| 5-- 4--------------------------|--------------------------------|
http://classicalguitartablature.blogspot.com/

0 ความคิดเห็น:

แสดงความคิดเห็น