To celebrate the anniversary, I am giving you (finally...) : iPhone LickByNeck !!!!!!

First Cut Is The Deepest (BASIC)

Cat Stevens' tune fingerstyle chord melody guitar BASIC arrangement played in the key of C.

First Cut Is The Deepest - BASIC ARRANGEMENT played in the key of C
http://classicalguitartablature.blogspot.com/
E|-------- 0------ 1-- 0 1---- 3--|--------------------------------|
B|------ 1-------- 1-- 1 1---- 0--|-------- 0---- 1------ 0--------|
G|------ 0-------- 2-- 2 2---- 0--|-------- 0---- 0---- 0 0--------|
D|-- 2-- 2---- 2------------------|-- 0-------------- 0-- 0-- 0----|
A| 3------------------------------|--------------------------------|
E|---------------- 1------------ 3|---------------- 3--------------|
http://classicalguitartablature.blogspot.com/
E|-------- 0------ 1-- 0 1---- 3--|--------------------------------|
B|------ 1-------- 1-- 1 1---- 0--|-------- 0---- 1------ 0--------|
G|------ 0-------- 2-- 2 2---- 0--|-------- 0---- 0---- 0 0--------|
D|-- 2-- 2---- 2------------------|-- 0-------------- 0-- 0-- 0----|
A| 3------------------------------|------------------------------10|
E|---------------- 1------------ 3|---------------- 3--------------|
http://classicalguitartablature.blogspot.com/
http://classicalguitartablature.blogspot.com/
E|----10--10---------- 8---- 8----|---- 7---- 7--------------------|
B|------12--12----------10--10----|------ 8---- 8---------- 1-- 3--|
G|--------12--12----------10----10|-------- 7-- 7---- 0------------|
D|--------------------------------|--------------------------------|
A|--------------10----------------|10------------------------------|
E|--------------------------------|---------------- 3--------------|
http://classicalguitartablature.blogspot.com/
E| 0-- 1 0------------ 0----------|------------------------ 0-- 3--|
B| 1-- 1-- 1-- 3------ 3-- 3-- 1--|------------------------ 0-- 0--|
G| 0-- 0-- 0-- 0---------- 0-- 0 2|---- 2------ 2------------------|
D|------------ 0------------------| 3------ 3---------- 0----------|
A| 3------------------------------|--------------------------------|
E|---------------- 3--------------| 1-------------- 3--------------|
http://classicalguitartablature.blogspot.com/
E| 5-- 3-- 3---- 1-- 0-- 0--------|---- 0--------------------------|
B| 5-- 5-- 5 5---- 0-- 0 0---- 3--|------------------------ 1-- 3--|
G| 5-- 5-- 5-- 5-- 0-- 0------ 2--|------------ 2 0-- 0------------|
D|------------ 3-------------- 3--|-------- 3----------------------|
A| 3------------------------------|--------------------------------|
E|---------------- 3--------------| 1-------------- 3--------------|
http://classicalguitartablature.blogspot.com/
E| 0-- 1 0------------ 0----------|------------------ 0------------|
B| 1-- 1 1---- 3------ 3 3---- 1--|---- 1-------- 0-- 0 3 1 3------|
G| 0-- 0 0---- 0-------- 0---- 2--|------ 2------ 0-- 0 0 0 0------|
D|------------ 0-------------- 3--|------------ 3------ 0 0 0------|
A| 3------------------------------|--------------------------------|
E|-------------- 3----------------| 1-------------- 3--------------|
http://classicalguitartablature.blogspot.com/
E| 0------------------------------|-------------- 0-- 3---- 3 5----|
B| 1-- 3-- 1 3 1------------------|-------------- 0-- 0---- 0-- 5--|
G| 0-- 0-- 0 0 0---------- 0---- 0|------ 2------ 0-- 0---- 0-- 5--|
D|---- 2-- 2 2 0------ 0------ 0--| 3 3-------- 3------------------|
A| 3------------------------------|--------------------------------|
E|---------------- 3--------------| 1-------------- 3--------------|
http://classicalguitartablature.blogspot.com/
E|---- 3 3------ 1-- 0---- 0------|---- 0--------------------------|
B|---- 5-- 5 5-- 0-- 0---- 0-- 3--|---- 1---------- 0--------------|
G|---- 5-- 5---- 0---- 0-- 0-- 2--|------------ 2------------------|
D|---------------------------- 3--|-------- 3---------- 0----------|
A| 3------------------------------|------------------------ 0-- 2--|
E|---------------- 3--------------| 1-------------- 3--------------|
http://classicalguitartablature.blogspot.com/
E|-------- 0----------------------|-------------- 0-- 3-- 3-- 5----|
B|-------- 1------ 3-- 1-- 3-- 3--|-------------- 0-- 0-- 0---- 3--|
G|-------- 0---- 0 0-- 0-- 0-- 2--|---- 2---- 2-- 0-- 0---- 0------|
D|---- 2---- 2---- 0-- 0-- 0-- 3--|-------- 3----------------------|
A| 3------------------------------|------------------------------ 3|
E|---------------- 3--------------| 1-------------- 3--------------|
http://classicalguitartablature.blogspot.com/
E|-------- 0----------------------|--------------------------------|
B|-------- 1------ 3-- 1-- 3-- 3--|---------------------- 1-- 3----|
G|-------------- 0 0-- 0-- 0-- 2--|---- 2------ 2 0-- 0------------|
D|---- 2------ 2-- 0-- 0-- 0-- 3--|------ 3------ 0----------------|
A|--------------------------------|--------------------------------|
E|---------------- 3--------------| 1-------------- 3--------------|
http://classicalguitartablature.blogspot.com/
E| 0-- 1-- 0-------------- 0------|------------------------ 0-- 3--|
B| 1-- 1-- 1-- 3------ 1-- 1-- 1--|------------------------ 0-- 0--|
G| 0-- 0-- 0-- 0------ 0------ 2--|-------- 2---- 0----------------|
D|------------ 0------ 0----------|---- 3------ 3------ 0----------|
A| 3------------------------------|--------------------------------|
E|---------------- 3--------------| 1-------------- 3--------------|
http://classicalguitartablature.blogspot.com/
E| 5 3---- 3---- 1-- 0-- 0--------|--10----10---------- 8---- 8----|
B| 5 5---- 5 5-- 1-- 1-- 1--------|----12----12----------10--10----|
G| 5-- 5-- 5 5-- 2-- 2-- 2--------|------12------12--------10----10|
D|--------------------------12----|--------------------------------|
A| 3----------------------------10|--------------10----------------|
E|---------------- 1--------------|--------------------------------|
http://classicalguitartablature.blogspot.com/
E|---- 7---- 7--------------------|--------------------------------|
B|------ 8---- 8------ 1------ 1--|------------------ 1------ 3----|
G|-------- 7-- 7-------- 2------ 2|------------ 0------------------|
D|-------------------------- 3----|-- 3----------------------------|
A|10------------------------------|--------------------------------|
E|---------------- 3--------------|------ 3------------------------|
http://classicalguitartablature.blogspot.com/
E|---- 0--------------------------|--------------------------------|
B|---- 1--------------------------|--------------------------------|
G|-- 0----------------------------|--------------------------------|
D|--------------------------------|--------------------------------|
A|-- 3----------------------------|--------------------------------|
E|--------------------------------|--------------------------------|
http://classicalguitartablature.blogspot.com/

0 ความคิดเห็น:

แสดงความคิดเห็น